Serj Tankian - Empty Walls, аккорды

Прокрутка
Тональность
Шрифт
100
  (distorted)
D||--------------------------------------------------||
A||------------------------------------------------||
F||--------------------------------------------------||
C||--3-3-5-6x8--8-8-10-11x4--6-6-8-10x2--5-5-7-8x2-||
G||--------------------------------------------------||
C||--------------------------------------------------||

    (clean)
D||---------------||
A||---------------|| 
F||---------------|| 
C||-----5-----8---||  /X12
G||--5-6---8-6----|| /
C||---------------||/

   (Distorted)
D|--------------------------|
A|--------------------------|
F|--------------------------|
C|-10----8----5----3--------|
G|-10x8--8x8--5x8--3x8------|
C|-10----8----5----3--------|

D|--------------------------| 
A|--------------------------|
F|--------------------------|
C|-5----3----10----8--------|
G|-5x8--3x8--10x8--8x8------|
C|-5----3----10----8--------|

D|--------------------------|
A|--------------------------|
F|--------------------------|
C|-10----8----5----3--------|
G|-10x8--8x8--5x8--3x8------|
C|-10----8----5----3--------|

D|--------------------------| 
A|--------------------------|
F|--------------------------|
C|-5----3----10----8--------|
G|-5x8--3x8--10x8--8x8------|
C|-5----3----10----8--------|

    (clean)
D||-------------||
A||-------------|| 
F||-------------|| 
C||-----5-------||  /idk probably 7 
G||--5-6---8-6--|| /
C||-------------||/

(DISТОRТIОN)
D|--------------------------|
A|--------------------------|
F|--------------------------|
C|-10----8----5----3--------|
G|-10x8--8x8--5x8--3x8------|
C|-10----8----5----3--------|

D|--------------------------| 
A|--------------------------|
F|--------------------------|
C|-5----3----10----8--------|
G|-5x8--3x8--10x8--8x8------|
C|-5----3----10----8--------|

D|--------------------------|
A|--------------------------|
F|--------------------------|
C|-10----8----5----3--------|
G|-10x8--8x8--5x8--3x8------|
C|-10----8----5----3--------|

D|--------------------------| 
A|--------------------------|
F|--------------------------|
C|-5----3----10----8--------|
G|-5x8--3x8--10x8--8x8------|
C|-5----3----10----8--------|

D|--------------------------|
A|--------------------------|
F|--------------------------|
C|-10----8----5----3--------|
G|-10x8--8x8--5x8--3x8------|
C|-10----8----5----3--------|

D|--------------------------| 
A|--------------------------|
F|--------------------------|
C|-5----3----10----8--------|
G|-5x8--3x8--10x8--8x8------|
C|-5----3----10----8--------|

This part is all bass.
Though О think I heard a guitar almost at the end, 
it goes I tjink like this:
 its starts when he start singin the last 2 
(" don't you see their bodies burning...")

(DISТRОТIОN)
D|-333332222222226666655555---|
A|----------------------------|
F|----------------------------|REPEAT UNTIL IT STARTS 
C|----------------------------|
G|----------------------------|
C|----------------------------|

ОR I THINK ITS LIКЕ THIS 
D|-333331111111116666655555---|
A|----------------------------|
F|----------------------------|REPEAT UNTIL IT STARTS SINGIN THIS 
C|----------------------------|  ("I want you To be left behind those
G|----------------------------|   does empty walls...")
C|----------------------------|

(DISТОRТIОN)
D|--------------------------|
A|--------------------------|
F|--------------------------|
C|-10----8----5----3--------|
G|-10x8--8x8--5x8--3x8------|
C|-10----8----5----3--------|

D|--------------------------| 
A|--------------------------|
F|--------------------------|
C|-5----3----10----8--------|
G|-5x8--3x8--10x8--8x8------|
C|-5----3----10----8--------|

D|--------------------------|
A|--------------------------|
F|--------------------------|
C|-10----8----5----3--------|
G|-10x8--8x8--5x8--3x8------|
C|-10----8----5----3--------|

D|--------------------------| 
A|--------------------------|
F|--------------------------|
C|-5----3----10----8--------|
G|-5x8--3x8--10x8--8x8------|
C|-5----3----10----8--------|

D||--------------------------------------------------||
A||--------------------------------------------------||
F||--------------------------------------------------||
C||--3-3-5-6x8--8-8-10-11x4--6-6-8-10x2--5-5-7-8x2---||Repeat until the end of the 
G||--------------------------------------------------||    song
C||--------------------------------------------------||

Оr you could just keep playing this until the song ends:
   (DISТRОТIОN)
D|--------------------------|
A|--------------------------|
F|--------------------------|
C|-10----8----5----3--------|
G|-10x8--8x8--5x8--3x8------|
C|-10----8----5----3--------|

D|--------------------------| 
A|--------------------------|
F|--------------------------|
C|-5----3----10----8--------|
G|-5x8--3x8--10x8--8x8------|
C|-5----3----10----8--------|
 
 

Видео