Serj Tankian - Falling Stars, аккорды

Прокрутка
Тональность
Шрифт
100
e|------------------------------------------5-----5------5------------------|
B|--------3---------3--------3-----3------3---3-----3------3----------------|
G|------2--------2--------2------2------2-------2-----2------2--------------|
D|---0--------0--------0-------0------0-------------------------------------|
A|--------------------------------------------------------------------------|
E|--------------------------------------------------------------------------|

e|--------------------------------------------------------------------------|
B|--------------------------------------------------------------------------|
G|---------------------------------------------------3-3-3-3-3-3------------|
D|-3-3-3-3-3-3-3-3-3-3----------2-2-2-2-2-2-2--------3-3-3-3-3-3------------|
A|-3-3-3-3-3-3-3-3-3-3----------2-2-2-2-2-2-2--------1-1-1-1-1-1------------|
E|-1-1-1-1-1-1-1-1-1-1-----3-1--0-0-0-0-0-0-0-------------------------------|

And then repeat 'til the song picks up. 
 
 

Видео