Serj Tankian - Feed Us, аккорды

Прокрутка
Тональность
Шрифт
100
Tuning: drop В

This is the whole song separated in its different parts.
There's the list of the part to play in order :

   +---------------+
   | Parts Order : |
   +---------------+
   |   Part А      |
   |   Part В      |
   |   Part С      |
   |   Part В      |
   |   Part С      |
   |   Part D      |
   |   Part А      |
   |   Part С x 2  |
   |   Part Е      |
   +---------------+

 +--------+      
 | PART А |
 +--------+

   v v v v v^v^v^ v v v v v v v^v^v^ v v v 
E|------------------------------------------|
B|------------------------------------------|
G|------------------------------------------|
D|---2-2-2-2-2222225-5/1-1-1-1-1111114-4/2--|
A|---2-2-2-2-2222225-5/1-1-1-1-1111114-4/2--|
D|---2-2-2-2-2222225-5/1-1-1-1-1111114-4/2--|
 
  v v v v^v^v^ v v v v v v v v v v 
E|--------------------------------------|
B|--------------------------------------|
G|--------------------------------------|
D|-2-2-2-2222225-5/7-7-7-7-10-10-10-10--|
A|-2-2-2-2222225-5/7-7-7-7-10-10-10-10--|
D|-2-2-2-2222225-5/7-7-7-7-10-10-10-10--|

E|---------------------------------|
B|---------------------------------|
G|---------------------------------|
D|-222-222-222-555-111-111-111-444-|
A|-222-222-222-555-111-111-111-444-|
D|-222-222-222-555-111-111-111-444-|
 
  v v v v v^v^ v v v v v v v v v v   
E|---------------------------------------|
B|---------------------------------------|
G|---------------------------------------|
D|-222-222-222-555-7-7-7-7-10-10-10-10---|
A|-222-222-222-555-7-7-7-7-10-10-10-10---|
D|-222-222-222-555-7-7-7-7-10-10-10-10---|
 
 +--------+      
 | PART В |
 +--------+

   Guitar 1                          
          x 3                                    
E|----------------------------|-------------------|
B|----------------------------|-------------------|
G|----------------------------|-------------------|
D|----------------------------|-------------------|
A|---10/7--9/6--10/7--9--12---|-9-12/9-12-15-12-9-|
D|----------------------------|-------------------|
          x4
E|---------------------------------|----|
B|---------------------------------|----|
G|---------------------------------|----|
D|---------------------------------|----|
A|-7--10--7-7-10-9--6--9--6-6-9-10-|-12-|
D|---------------------------------|----|

   Guitar 2
E|--------------------------|
B|--------------------------|
G|--------------------------|
D|--------------------------|
A|----7-10-7-10-7-10-7--6-9-|
D|--------------------------|

E|---------------------|
B|---------------------|
G|---------------------|
D|---------------------|
A|-6-9-6-9-6-9-6--7-10-|
D|---------------------|


E|------------------------|
B|------------------------|
G|------------------------|
D|------------------------|
A|-7-10-7-10-7-10-7--9-12-|
D|------------------------|

E|----------------------------|
B|----------------------------|
G|----------------------------|
D|----------------------------|
A|-9-12-12-15-12-15-12-15-12--|
D|----------------------------|

 +--------+      
 | PART С |
 +--------+
E|-------------------------------------|
B|-------------------------------------|
G|-------------------------------------|
D|-/2-2-2-222222-2-2-5-5-5-555555-5-5--|
A|--/2-2-2-222222-2-2-5-5-5-555555-5-5-|
D|--/2-2-2-222222-2-2-5-5-5-555555-5-5-|
   cheat us...    feed us...

E|-----------------------------------------------|
B|-----------------------------------------------|
G|-----------------------------------------------|
D|-7-7-7-777777-7-7-10-10-10-101010101010-10-10--|
A|-7-7-7-777777-7-7-10-10-10-101010101010-10-10--|
D|-7-7-7-777777-7-7-10-10-10-101010101010-10-10--|
  liiiiiie...    stars look out...

 +--------+      
 | PART D  |
 +--------+

E|---------------------------------------|
B|----8---8-9-8--------------------------|
G|-5------------7---8---10-12-10-8/107---|
D|---------------------------------------|
A|---------------------------------------|
D|---------------------------------------|

E|----------------------------------|
B|----------------------------------|
G|-7-7-8-7-5-12---7---8--8-10-8-8-9-|
D|----------------------------------|
A|----------------------------------|
D|----------------------------------|

E|----------------|------------|
B|---8------------|------------|
G|-5-----7----8---|-8-10-8-8-7-|
D|----------------|------------|
A|----------------|------------|
D|----------------|------------|

 +--------+      
 | PART Е |
 +--------+

E|---------------------------------|
B|---------------------------------|
G|---------------------------------|
D|---------------------------------|
A|-7-9-10---9-10---10-6-7-9---7-9--|
D|---------------------------------|

E|-------------------------------------------|
B|-------------------------------------------|
G|-------------------------------------------|
D|-------------------------------------------|
A|-9-7-9-10---9-10---9-7-9-12---9-12---12-15-|
D|-------------------------------------------|

E|-------------------------------------|
B|-------------------------------------|
G|-------------------------------------|
D|-------------------------------------|
A|-12-7-9-10-0-9-10-0-10-6-7-9-0-7-9-0-|
D|-------------------------------------|

E|-------------------------------------------|
B|-------------------------------------------|
G|-------------------------------------------|
D|-------------------------------------------|
A|-9-7-9-10-0-9-10-0-9-7-9-12-0-9-12-0-12-15-|
D|-------------------------------------------|

Комментарий автора:

| / slide up
|  slide down
| h hammer-on
| p pull-off
| ~ vibrato
| + harmonic
| x Mute note
| v Down strumming
| ^ Up strumming
 
 

Видео