Serj Tankian - Beethovens Cunt, аккорды

Прокрутка
Тональность
Шрифт
100
Gtr I (C G C F A D) - Lоwеr, heavier тоnе
Gtr II (C G C F A D) - Higher, piercing тоnе

Теmро: 150-170, авоuт 140 рiаnо ending
4/4

 Gtr I
   E E E E E E E E      E E E E E E E E     W  +W
||-------------------|| ||-------------------|| |---|-----|
||о-----------------о|| ||о-----------------о|| |---|-----|
||-------------------|| ||-------------------|| |---|-----|
||-------------------|| ||-------------------|| |---|-----|
||о-----------------о|| ||о-----1-3-1-------о|| |-0-|-(0)-|
||--1-3-1-3-1-3-1-3--|| ||--1-3-------3-1-3--|| |-0-|-(0)-|

 Gtr I                3/4   4/4
   W      W      W     Q. Q.  W
|---------|---------|---------|-------|----|
|---------|---------|---------|-------|----|
|---------|---------|---------|-------|----|
|---------|---------|---------|-------|----|
|---------|---------|---------|--2--3-|--0-|
|---------|---------|---------|--2--3-|--0-|
|
| Gtr II               3/4   4/4
| Q. Q. Q  Q. Q. Q  Q. Q. Q   Q. Q.  W
|---------|---------|---------|-12-13-|-10-|
|---------|---------|---------|-------|----|
|---------|---------|---------|-------|----|
|----7----|----7----|----7----|-------|----|
|-5-----5-|-5-----5-|-7-----7-|-------|----|
|---------|---------|---------|-------|----|

                    3/4   4/4
   W      W      W     Q. Q.  W
|---------|---------|---------|-------|----|
|---------|---------|---------|-------|----|
|---------|---------|---------|-------|----|
|---------|---------|---------|-------|----|
|---------|---------|---------|--2--3-|--0-|
|---------|---------|---------|--2--3-|--0-|
|
|                    3/4   4/4
| Q. Q. Q  Q. Q. Q  Q. Q. Q   Q. Q.  W
|---------|---------|---------|-12-13-|-10-|
|---------|---------|---------|-------|----|
|---10----|---10----|----9----|-------|----|
|-7-----7-|-7-----7-|-5-----5-|-------|----|
|---------|---------|---------|-------|----|
|---------|---------|---------|-------|----|

 PM----------------------------------------------------------|
                          [1.       ][2.     ]
   Q Q E E Q  Q Q E E Q  Q Q E E Q  Q Q E E Q   Q Q Q Q
||------------|-----------|-----------|------------||---------|
||о-----------|-----------|-----------|-----------о||---------|
||------------|-----------|-----------|------------||---------|
||------------|-----------|-----------|------------||---------|
||о-0-0-0-0-0-|-7-7-7-7-7-|-8-8-8-8-8-|-1-1-1-1-1-о||-1-1-1-1-|
||--0-0-0-0-0-|-7-7-7-7-7-|-8-8-8-8-8-|-1-1-1-1-1--||-1-1-1-1-|
|
|                         [1.       ][2.     ]   
|  Q Q Q  Q  Q Q Q  Q  Q Q Q  Q  H  H      H  H
||------------|-----------|-----------|------------||-8---8---|
||о-----------|-----------|-----------|-----------о||-8---8---|
||------------|-----------|-----------|-5---2------||---------|
||------7-----|-----5-----|-----3-----|------------||---------|
||о-5-8-----5-|-3-7-----3-|-1-5-----1-|-----------о||---------|
||------------|-----------|-----------|------------||---------|

 Gtr I
   E E E E E E E E  E E E E E E E E
||------------------|------------------||
||о-----------------|-----------------о||
||------7-----7-----|-6-----6-----6-6--||
||----7-----7-----7-|---6-----6--------||
||о-5-----5-----5---|-----4-----4-----о||
||------------------|------------------||

 Q. E Q. E  Q. E Q. E
|-----------|-----------|
|-----------|-----------|
|------6--6-|------6--6-|
|-7--7-4--4-|-7--7-4--4-|
|-5--5------|-5--5------|
|-----------|-----------|

 E E E E E E E E  E E E E E E E E
|-----------------|-----------------|
|-----------------|-----------------|
|-----------------|-----------------|
|-----------------|-----------------|
|-----------------|-5-7-5-7-7-8-7-8-|
|-4-5-4-5-4-5-4-5-|-5-7-5-7-7-8-7-8-|

 Gtr I
   Q. Q. Q  W
||-----------|-------------||
||о----------|------------о||
||-----------|-------------||
||-----------|-------------||
||о--5--3--2-|-0----------о||
||---5--3--2-|-0-----------||
|
| Gtr II
|   Q. Q. Q  Q Q Q Q  
||-----------|-------------||
||о----------|------------о||
||-----------|-------------||
||--12-10--9-|-7-----------||
||о-10-8---7-|-5-0?-7?-8?-о||
||-----------|-------------||

  Q. Q. Q  W         Q. Q. Q  E E E E E E E E  W  +W
|----------|------------|----------|-----------------|---|-----|
|----------|------------|----------|-----------------|---|-----|
|----------|------------|----------|-----------------|---|-----|
|----------|------------|----------|-----------------|---|-----|
|--5--3--2-|-0----------|--5--3--2-|-----------------|-0-|-(0)-|
|--5--3--2-|-0----------|--5--3--2-|-1-3-1-3-1-3-1-3-|-0-|-(0)-|
|
|
| Q. Q. Q  Q Q Q Q   Q. Q. Q  W           W  +W
|----------|------------|----------|-----------------|---|-----|
|----------|------------|----------|-----------------|---|-----|
|----------|------------|----------|-----------------|---|-----|
|-12-10--9-|-7----------|-12-10--9-|-8---------------|-7-|-(7)-|
|-10-8---7-|-5-0?-7?-8?-|-10-8---7-|-6---------------|-5-|-(5)-|
|----------|------------|----------|-----------------|---|-----|

              3/4   4/4
   W      W     Q. Q.  W
|---------|---------|-------|----|
|---------|---------|-------|----|
|---------|---------|-------|----|
|---------|---------|-------|----|
|---------|---------|--2--3-|--0-|
|---------|---------|--2--3-|--0-|
|
|             3/4   4/4
| Q. Q. Q  Q. Q. Q   Q. Q.  W
|---------|---------|-12-13-|-10-|
|---------|---------|-------|----|
|---------|---------|-------|----|
|----7----|----7----|-------|----|
|-5-----5-|-7-----7-|-------|----|
|---------|---------|-------|----|

              3/4   4/4
   W      W     Q. Q.  W
|---------|---------|-------|----|
|---------|---------|-------|----|
|---------|---------|-------|----|
|---------|---------|-------|----|
|---------|---------|--2--3-|--0-|
|---------|---------|--2--3-|--0-|
|
|             3/4   4/4
| Q. Q. Q  Q. Q. Q   Q. Q.  W
|---------|---------|-12-13-|-10-|
|---------|---------|-------|----|
|---10----|----9----|-------|----|
|-7-----7-|-5-----5-|-------|----|
|---------|---------|-------|----|
|---------|---------|-------|----|

 PM----------------------------------------------------------|
                          [1.       ][2.     ]
   Q Q E E Q  Q Q E E Q  Q Q E E Q  Q Q E E Q   Q Q Q Q
||------------|-----------|-----------|------------||---------|
||о-----------|-----------|-----------|-----------о||---------|
||------------|-----------|-----------|------------||---------|
||------------|-----------|-----------|------------||---------|
||о-0-0-0-0-0-|-7-7-7-7-7-|-8-8-8-8-8-|-1-1-1-1-1-о||-1-1-1-1-|
||--0-0-0-0-0-|-7-7-7-7-7-|-8-8-8-8-8-|-1-1-1-1-1--||-1-1-1-1-|
|
|                         [1.       ][2.     ]   
|  Q Q Q  Q  Q Q Q  Q  Q Q Q  Q  H  H      H  H
||------------|-----------|-----------|------------||-8---8---|
||о-----------|-----------|-----------|-----------о||-8---8---|
||------------|-----------|-----------|-5---2------||---------|
||------7-----|-----5-----|-----3-----|------------||---------|
||о-5-8-----5-|-3-7-----3-|-1-5-----1-|-----------о||---------|
||------------|-----------|-----------|------------||---------|

 Gtr I
   E E E E E E E E  E E E E E E E E
||------------------|------------------||
||о-----------------|-----------------о||
||------7-----7-----|-6-----6-----6-6--||
||----7-----7-----7-|---6-----6--------||
||о-5-----5-----5---|-----4-----4-----о||
||------------------|------------------||

 Q. E Q. E  Q. E Q. E
|-----------|-----------|
|-----------|-----------|
|------6--6-|------6--6-|
|-7--7-4--4-|-7--7-4--4-|
|-5--5------|-5--5------|
|-----------|-----------|

 E E E E E E E E  E E E E E E E E
|-----------------|-----------------|
|-----------------|-----------------|
|-----------------|-----------------|
|-----------------|-----------------|
|-----------------|-5-7-5-7-7-8-7-8-|
|-4-5-4-5-4-5-4-5-|-5-7-5-7-7-8-7-8-|

 Gtr I
   Q. Q. Q  W
||-----------|-------------||
||о----------|------------о||
||-----------|-------------||
||-----------|-------------||
||о--5--3--2-|-0----------о||
||---5--3--2-|-0-----------||
|
| Gtr II
|   Q. Q. Q  Q Q Q Q  
||-----------|-------------||
||о----------|------------о||
||-----------|-------------||
||--12-10--9-|-7-----------||
||о-10-8---7-|-5-0?-7?-8?-о||
||-----------|-------------||

  Q. Q. Q  W         Q. Q. Q  E E E E E E E E
|----------|------------|----------|-----------------|
|----------|------------|----------|-----------------|
|----------|------------|----------|-----------------|
|----------|------------|----------|-----------------|
|--5--3--2-|-0----------|--5--3--2-|-----------------|
|--5--3--2-|-0----------|--5--3--2-|-1-3-1-3-1-3-1-3-|
|
|
| Q. Q. Q  Q Q Q Q   Q. Q. Q  W           
|----------|------------|----------|-----------------|
|----------|------------|----------|-----------------|
|----------|------------|----------|-----------------|
|-12-10--9-|-7----------|-12-10--9-|-8---------------|
|-10-8---7-|-5-0?-7?-8?-|-10-8---7-|-6---------------|
|----------|------------|----------|-----------------|

  E E E E E E E E  W  +W
|------------------|---|-----|
|------------------|---|-----|
|------------------|---|-----|
|------------------|---|-----|
|------------------|-0-|-(0)-|
|--1-3-1-3-1-3-1-3-|-0-|-(0)-|
|
|
| +W           W  +W
|------------------|---|-----|
|------------------|---|-----|
|------------------|---|-----|
|-(8)--------------|-7-|-(7)-|
|-(6)--------------|-5-|-(5)-|
|------------------|---|-----|

Sоlо:
 Gtr II
   Q. Q. Q   Q. Q. Q   Q. Q. Q   Q E Q E Q
||-----------|----------|----------|-15-13-12-13-12--||
||о-15-------|-17-------|-18-------|----------------о||
||-----14-14-|----14-14-|----14-14-|-----------------||
||-----------|----------|----------|-----------------||
||о----------|----------|----------|----------------о||
||-----------|----------|----------|-----------------||

   E E E E E E E E   S S E E E E E E E 
||--10-10-10-10-10-10-10-10-|-108-8-8-8-8-8-8-8-|
||о-------------------------|--------------------|
||--------------------------|--------------------|
||--------------------------|--------------------|
||о-------------------------|--------------------|
||--------------------------|--------------------|

 S S E E E E E E E  S S E E E E E E E
|-8/5-5-5-5-5-5-5-5-|-5/3-3-3-3-3-3-3-3--||
|-------------------|-------------------о||
|-------------------|--------------------||
|-------------------|--------------------||
|-------------------|-------------------о||
|-------------------|--------------------||

 Gtr I
  E E E E E E E E   E E E E E E E E
|-------------------------|-------------------------|
|-------------------------|-------------------------|
|-----------------------5-|-------------------------|
|-----------5--7--7--8----|--8--7--5-----7--5-------|
|--5--7--8----------------|-----------8--------8--7-|
|-------------------------|-------------------------|
|
| Gtr II
| E E E E E E E E   E E E E E E E E 
|-10-10-10-10-10-10-10-10-|-12-12-12-12-12-12-12-12-|
|-------------------------|-------------------------|
|-------------------------|-------------------------|
|-------------------------|-------------------------|
|-------------------------|-------------------------|
|-------------------------|-------------------------|

  E E E E E E E E   E E E E E E E E
|-------------------------|-------------------------|
|-------------------------|-------------------------|
|-----------------------5-|-------------------------|
|-----------5--7--7--8----|--8--7--5-----8--7--5----|
|--5--7--8----------------|-----------8-----------8-|
|-------------------------|-------------------------|
|
| E E E E E E E E   Q   E Q   E Q 
|-13-13-13-13-13-13-13-13-|-15----13-12----13-12----|
|-------------------------|-------------------------|
|-------------------------|-------------------------|
|-------------------------|-------------------------|
|-------------------------|-------------------------|
|-------------------------|-------------------------|

  E E E E E E E E   E E E E E E E E
|-------------------------|-------------------------|
|-------------------------|-------------------------|
|-----------------------5-|-------------------------|
|-----------5--7--7--8----|--8--7--5-----7--5-------|
|--5--7--8----------------|-----------8--------8--7-|
|-------------------------|-------------------------|
|
| E E E E E E E E   E E E E E E E E 
|-10-10-10-10-10-10-10-10-|-12-12-12-12-12-12-12-12-|
|-------------------------|-------------------------|
|-------------------------|-------------------------|
|-------------------------|-------------------------|
|-------------------------|-------------------------|
|-------------------------|-------------------------|

  E E E E E E E E   E E E E E E E E
|-------------------------|-------------------------|
|-------------------------|-------------------------|
|-----------------------5-|-------------------------|
|-----------5--7--7--8----|--8--7--5-----8--7--5----|
|--5--7--8----------------|-----------8-----------8-|
|-------------------------|-------------------------|
|
|
| E E E E E E E E   E E E E E E E E
|-13-13-13-13-13-13-13-13-|-15-15-15-15-15-15-15-15-|
|-------------------------|-------------------------|
|-------------------------|-------------------------|
|-------------------------|-------------------------|
|-------------------------|-------------------------|
|-------------------------|-------------------------|

  E E E E E E E E
|-------------------------|
|-------------------------|
|-------------------------|
|--8--7--5-----8--7--5----|
|-----------8-----------8-|
|-------------------------|
|
|
| E E E E E E E E 
|-15-15-15-15-15-15-15-15-|
|-------------------------|
|-------------------------|
|-------------------------|
|-------------------------|
|-------------------------|

  Q. Q. Q  W           Q. Q. Q  W
|----------|------------| ||-----------|-------------||
|----------|------------| ||о----------|------------о||
|----------|------------| ||-----------|-------------||
|----------|------------| ||-----------|-------------||
|--8--5--3-|-0----------| ||о--5--3--2-|-0----------о||
|--8--5--3-|-0----------| ||---5--3--2-|-0-----------|| 
|
|
| Q. Q. Q  Q Q Q Q      Q. Q. Q  Q Q Q Q
|----------|------------| ||-----------|-------------||
|----------|------------| ||о----------|------------о||
|----------|------------| ||-----------|-------------||
|-15-12-10-|-7----------| ||--12-10--9-|-7-----------||
|-13-10-8--|-5-0?-7?-8?-| ||о-10-8---7-|-5-0?-7?-8?-о||
|----------|------------| ||-----------|-------------||

  Q. Q. Q  E E E E E E E E   E E E E E E E E
|----------|-----------------|------------------|
|----------|-----------------|------------------|
|----------|-----------------|------------------|
|----------|-----------------|------------------|
|--5--3--2-|-----------------|------------------|
|--5--3--2-|-1-3-1-3-1-3-1-3-|--1-3-1-3-1-3-1-3-|
|
|
| Q. Q. Q  W           +W
|----------|-----------------|-----------------|
|----------|-----------------|-----------------|
|----------|-----------------|-----------------|
|-12-10--9-|-8---------------|-(8)-------------|
|-10-8---7-|-6---------------|-(6)-------------|
|----------|-----------------|-----------------|

 E E E E E E E E   E E E E E E E E   W   +W
|-----------------|------------------|----|------|
|-----------------|------------------|----|------|
|-----------------|------------------|----|------|
|-----------------|------------------|----|------|
|-----1-3-1-------|------1-3-1-------|--0-|--(0)-|
|-1-3-------3-1-3-|--1-3-------3-1-3-|--0-|--(0)-|
|
|
| H     H       H     H       W   +W
|-----------------|------------------|----|------|
|-----------------|------------------|----|------|
|-8------10-------|-12------15-------|-14-|-(14)-|
|-6------8--------|-10------13-------|-12-|-(12)-|
|-----------------|------------------|----|------|
|-----------------|------------------|----|------|

  +W   +W     REST
|------|------|-P----------T------------|
|------|------|-I----------О----------T-|
|------|------|-A---------------------H-|
|------|------|-N----------T----------E-|
|--(0)-|--(0)-|-О----------H------------|
|--(0)-|--(0)-|-&----------E------------|
|
|
| +W   +W     REST
|------|------|-V----------E------------|
|------|------|-О----------N----------S-|
|-(14)-|-(14)-|-C----------D----------О-|
|-(12)-|-(12)-|-A---------------------N-|
|------|------|-L----------О----------G-|
|------|------|-S----------F------------|
 
 

Видео