Serj Tankian - Sky Is Over, аккорды

Прокрутка
Тональность
Шрифт
100
Pre Chorus:
Dont you want to hold me baby Disappointed, going crazy
e|-----1------1------3------3------1------1---------------------------------|
B|---1---1--1---1--1---1--1---1--1---1--1---1-------------------------------|
G|-3------3------3------3------3------3------3------------------------------|
D|--------------------------------------------------------------------------|
A|---------------------------------------------------6-6-6-6-5-5-5-5--------|
E|---------------------------------------------------6-6-6-6-5-5-5-5--------|

Chorus:
Guitar 1
Even though we cant afford The sky is over....
e|------------------------------------|
B|------------------------------------|
G|------------------------------------|
D|------------------------------------|
A|--5-5-5-5-5-5-5-5--6-6-6-6-5-5-5-5--| X 4
E|--3-3-3-3-3-3-3-3--6-6-6-6-5-5-5-5--|

Guitar 2
e|----------------------------------|
B|----------------------------------|
G|----------------------------------|
D|------0-----0---------1-----0---0-|
A|----1-----1-----1---1-----1-------| X4
E|--3-----3-----3---3-----3----3----|

Dont you want to hold me baby Disappointed, going crazy
e|---------------------------------------------------------------------------|
B|---------------------------------------------------------------------------|
G|---------------------------------------------------------------------------|
D|---------------------------------------------------------------------------|
A|--8-8-8-8-8-8-8-8-10-10-10-10-10-10-10-10-8-8-8-8-8-8-8-8--6-6-6-6-5-5-5-5-|
E|--6-6-6-6-6-6-6-6-8--8--8--8--8--8--8--8--6-6-6-6-6-6-6-6--6-6-6-6-5-5-5-5-|

e|---------------------------------------------------------------------------|
B|---------------------------------------------------------------------------|
G|---------------------------------------------------------------------------|
D|-------------------------3-----3-------------------------------------------|
A|-5-----5-----5-----5-----1-----1-----5------5------------------------------|
E|-3-----3-----3-----3-----------------3------3------------------------------|

Not even from the sun..                    
e|------------------|   
B|------------------|   
G|------------------|   
D|------------------| 
A|--8-8-8-8-8-8-8-8-| x3
E|--6-6-6-6-6-6-6-6-|   

Not even from the sun..  
e|---------------------------------------------------------|
B|---------------------------------------------------------|
G|---------------------------------------------------------|
D|---------------------------------------------------------|
A|-10-10-10-10-10-10-10-10-8-8-8-8-8-8-8-8--6-6-6-6-5-5-5-5|
E|-8--8--8--8--8--8--8--8--6-6-6-6-6-6-6-6--6-6-6-6-5-5-5-5|


Even though we cant afford The sky is over....
e|------------------------------------|
B|------------------------------------|
G|------------------------------------|
D|------------------------------------|
A|--5-5-5-5-5-5-5-5--6-6-6-6-5-5-5-5--| X 7
E|--3-3-3-3-3-3-3-3--6-6-6-6-5-5-5-5--|

Guitar 2
e|----------------------------------|
B|----------------------------------|
G|----------------------------------|
D|------0-----0---------1-----0---0-|
A|----1-----1-----1---1-----1-------| X7
E|--3-----3-----3---3-----3----3----|

e|------------------|   |---------------------------------|
B|------------------|   |---------------------------------|
G|------------------|   |---------------------------------|
D|------------------|   |---------------------------------|
A|--5-5-5-5-5-5-5-5-|   |-6-x-x-6-x-x-6-x-5-x-x-5-x-x-5-x-| X 2
E|--3-3-3-3-3-3-3-3-|   |-6-x-x-6-x-x-6-x-5-x-x-5-x-x-5-x-|
 
 

Видео