Serj Tankian - Money, аккорды

Прокрутка
Тональность
Шрифт
100
Tuning:Drop D 

Intro and pre chorus:
 0:11
e|------------------------------------------------------------------------|
B|------------------------------------------------------------------------|
G|------------------------------------------------------------------------|
D|-0----5----0----7----5----0---------3---------5----3--------------------|
A|-------------------------------3---------3--------------3---------------|
D|------------------------------------------------------------------------|

 0:17
e|--------------------------------------------------------------------------|
B|--------------------------------------------------------------------------|
G|--------------------------------------------------------------------------|
D|----------------------------------------------4----7----------------------|
A|------6---------8----6--------------5-------------------------------------|
D|-8---------8--------------8----7---------7--------------------------------|

 0:22
e|------------------------------------------------------------------------|
B|------------------------------------------------------------------------|
G|------------------------------------------------------------------------|
D|-0----5----0----7----5----0---------3---------5----3--------------------|
A|-------------------------------3---------3--------------3---------------|
D|------------------------------------------------------------------------|

0:27
e|--------------------------------------------------------------------------|
B|--------------------------------------------------------------------------|
G|--------------------------------------------------------------------------|
D|----------------------------------------------4----7----------------------|
A|------6---------8----6--------------5-------------------------------------|
D|-8---------8--------------8----7---------7--------------------------------|

Chorus (MONEY!!)
 0:33
e|-----------------------------------------------------------------|
B|-----------------------------------------------------------------|
G|-----------------------------------------------------------------|
D|-5--3--1--0--5--3--1--0--5--3--1--0--5--3--1--0------------------|
A|-5--3--1--0--5--3--1--0--5--3--1--0--5--3--1--0------------------|X2
D|-5--3--1--0--5--3--1--0--5--3--1--0--5--3--1--0------------------|

Verse:
well, the piano is to loud for me 
to hear the guitar in the verse... sorry

 1:37
e|------------------------------------------------------------------------|
B|------------------------------------------------------------------------|
G|------------------------------------------------------------------------|
D|-0----5----0----7----5----0---------3---------5----3--------------------|
A|-------------------------------3---------3--------------3---------------|
D|------------------------------------------------------------------------|

1:42
e|--------------------------------------------------------------------------|
B|--------------------------------------------------------------------------|
G|--------------------------------------------------------------------------|
D|----------------------------------------------4----7----------------------|
A|------6---------8----6--------------5-------------------------------------|
D|-8---------8--------------8----7---------7--------------------------------|

 1:47
e|------------------------------------------------------------------------|
B|------------------------------------------------------------------------|
G|------------------------------------------------------------------------|
D|-0----5----0----7----5----0---------3---------5----3--------------------|
A|-------------------------------3---------3--------------3---------------|
D|------------------------------------------------------------------------|

 1:53
e|--------------------------------------------------------------------------|
B|--------------------------------------------------------------------------|
G|--------------------------------------------------------------------------|
D|----------------------------------------------4----7----------------------|
A|------6---------8----6--------------5-------------------------------------|
D|-8---------8--------------8----7---------7--------------------------------|

Chorus:
 1:58
e|-----------------------------------------------------------------|
B|-----------------------------------------------------------------|
G|-----------------------------------------------------------------|
D|-5--3--1--0--5--3--1--0--5--3--1--0--5--3--1--0------------------|
A|-5--3--1--0--5--3--1--0--5--3--1--0--5--3--1--0------------------|X2
D|-5--3--1--0--5--3--1--0--5--3--1--0--5--3--1--0------------------|
 
 

Видео