Serj Tankian - Beatus, аккорды

Прокрутка
Тональность
Шрифт
100
standard tuning

|-----------0------------------------------------|
|----------------------------------0-------------|
|--------2-----2-----2----------2-----2-----2----|
|-----2-----------2----------1-----------1-------|
|--0----------------------2----------------------|
|------------------------------------------------|

|------------------------------------------------|
|-----------0-----------------------0------------|
|------------------------------------------------|
|--------2-----2-----2-----------0-----0-----0---|
|-----2-----------2-----------2-----------2------|
|--0-----------------------3---------------------|

|-------------------------------------2----------|
|-----------1----------------------0-------------|
|--------2-----2-----2----------2-----------2----|
|-----2-----------2----------1-----------1-------|
|--0----------------------2----------------------|
|------------------------------------------------|

|--------------0---------------------------------|
|------------------------------------------------|
|-----------0-----0------------------------------|
|--------2-----------2---------------------------|
|-----2--------------------2---------------------|
|--0--------------------0------------------------|

Piano arranged for guitar
|--10--8--7--5----7----5--3-2--0----0-2-3--------|
|------------------------------------------------|
|------------------------------------------------|
|------------------------------------------------|
|------------------------------------------------|
|------------------------------------------------|
 
 

Видео