Serj Tankian - Figure It Out, аккорды

Прокрутка
Тональность
Шрифт
100
Intro/Main Riff
D|----------------------------------------|
A|----------------------------------------|
F|----------------------------------------|
C|--------------------------------------5-|
G|-----6p5--------6p5--------6p5--------3-|
C|-0-0-----00-0-0-----00-0-0-----00-0-0---|

D|-------------------------------------|
A|-------------------------------------|
F|-------------------------------------|
C|---------------------------------5-6-|
G|-----6p5--------6p5--------6p5---5-6-|
C|-0-0-----00-0-0-----00-0-0-----0-5-6-|

Chorus
D|-----------------------------------------|
A|-----------------------------------------|
F|-----------------------------------------|
C|-7-7-7-7-10-10-10-10-5-5-5-5-12-12-12-12-|
G|-5-5-5-5-8--8--8--8--3-3-3-3-10-10-10-10-|
C|-----------------------------------------|

D|-----------------------------------------|
A|-----------------------------------------|
F|-----------------------------------------|
C|-7-7-7-7-10-10-10-10-5-5-5-5-10-10-12-12-|
G|-5-5-5-5-8--8--8--8--3-3-3-3-8--8--10-10-|
C|-----------------------------------------|

Verse
D|---------------------------|
A|---------------------------|
F|---------------------------|
C|---------------------------|
G|---------------------------|
C|-0-0-0-0-0-0-0-0-0-0-5-0-3-|

"Fuck, Let's Figure It Out"
D|----------------------------------------------------------------|
A|----------------------------------------------------------------|
F|----------------------------------------------------------------|
C|----------------------------------------------------------------|
G|----------------------------------------------------------------|
C|-00-0000-3-5-55--00-0000-3-6-66--00-0000-3-5-55--00-0000-3-6-66-|
 
 

Видео