Serj Tankian - Sky Is Over, аккорды

Прокрутка
Тональность
Шрифт
100
Intro: 2x
   "Everybody knows,Everybody knows..."
e|-0-|---------------|-------------1-|-1-|-0-
h|-1-|-1-1-1-1-1-0---|-1-1-1-1-1---3-|-1-|-0-
g|-2-|-------------2-|-----------2-2-|-2-|-1- -
d|-2-|---------------|-------------0-|-3-|-2- -
A|-0-|---------------|---------------|-3-|-2-
E|---|---------------|---------------|-1-|-0-
              "Living in remorse..."
e|-0-|---------------|-----------3-1-|-1-|-0- |
h|-1-|-1-1-1-1-1-0---|-1-1-1-1-1---3-|-1-|-0- |
g|-2-|-------------2-|-------------2-|-2-|-1- |  InTro
d|-2-|---------------|-------------0-|-3-|-2- |   end
A|-0-|---------------|---------------|-3-|-2- |
E|---|---------------|---------------|-1-|-0- |

G           Am
Don't you want to hold me baby
Dm        F   E
Disappointed, going crazy

Am 
Even though we can't afford 
F       E            
The sky is over         
Even though we can't afford
The sky is over
I don't want to see you Go
The sky is over
Even though we can't afford
The sky is over

Dm
Behind closes eyes lie...
                  F       E
Of countries, of empires, the sky is over

E           Am
Not even from the sun
Not even from the sun
Not even from the sun
Dm           F E
Don't you want me to run
 
 

Видео