Serj Tankian - Falling Stars, аккорды

Прокрутка
Тональность
Шрифт
100
E|-------------------------------------------------------------------------|
B|-------------------------------------------------------------------------|
G|----------------------------------------------14-------14-------14-------|
D|-------12-------12-------12-------12-------12-------12-------12-------12-|
A|----12-------12-------12-------12-------12-------12-------12-------12----|
D|-12-------12-------12-------12-------12----------------------------------|

E|-------------------------------------------------------------------------|
B|-------------------------------------------------------------------------|
G|-------------------------------------------------------------------------|
D|-3-3-3-3-3-3-3-3-3-3-5-3-2-2-2-2-2-2-8-8-8-8-8-8-------------------------|
A|-3-3-3-3-3-3-3-3-3-3-5-3-2-2-2-2-2-2-8-8-8-8-8-8-------------------------|
D|-3-3-3-3-3-3-3-3-3-3-5-3-2-2-2-2-2-2-8-8-8-8-8-8-------------------------|
 
 

Видео