Serj Tankian - Saving Us, аккорды

Прокрутка
Тональность
Шрифт
100
e|---------------------------------|
B|--1---1---1---1---0---0---0---0--|
G|-2---2---2---2---0---0---0---0---|
D|2---2---2---2---2---2---2---2----|
A|---------------------------------|
E|---------------------------------|

e|---------------------------------|
B|---------------------------------|
G|--2---2---2---2------------------|
D|-1---1---1---1---2---2---2---2---|
A|2---2---2---2---2---2---2---2----|
E|---------------0---0---0---0-----|


e|---------------------------0-----|
B|---------------------------0-----|
G|--2---2---2---2----0-------0-----|
D|-1---1---1---1----2-2------2-----|
A|2---2---2---2----2---2-----2-----|
E|----------------0-----0----0-----|
 
 

Видео