Serj Tankian - Feed Us, аккорды

Прокрутка
Тональность
Шрифт
100
Intro:
- The intro is a mixture of chords and the riff below.
Chords used: (timing not shown)
E|-------------------------------------------------|
B|-------------------------------------------------|
G|---0------0------0------0------0------0------0---|
D|---9------7------9------7------9------10-----14--|
A|---10-----9------10-----9------10-----12-----15--|
E|-0-0----0-0----0-0----0-0----0-0----0-0----0-0---|

E|-----------------------------------|
B|-----------------------------------|
G|---0------0------0------0------0---|
D|---9------7------9------10-----14--|
A|---10-----9------10-----12-----15--|
E|-0-0----0-0----0-0----0-0----0-0---|

Riff played throughout intro / verse:
E|----------------------------------------------|
B|----------------------------------------------|
G|----------------------------------------------|
D|----------------------------------------------|
A|---10---10---10---10---10---9---9---9---9---9-|
E|-0----0----0----0----0----0---0---0---0---0---|

E|---------------------------------------------------|
B|---------------------------------------------------|
G|---------------------------------------------------|
D|---------------------------------------------------|
A|---10---10---10---10---10---12---12---15---15---15-|
E|-0----0----0----0----0----0----0----0----0----0----|

Then the chorus:
   Em         G           Am
You cheat us when you feed us with the lie,
C
Stars look out and,
Em           G           Am
Cheat us when you feed us with the lie,
C
Stars look out,

The bridge:
C           G
Do you know that life is ending,
F         G
As we go, the dots connecting,
C              G
We had our chance to save the garden,
F          G
As it dies, our souls will harden,
C              G
With these words chastising your conscience
F                 G
Were breaking through and praying for

transcendence.

- The end of the bridge is like the intro.

Комментарий автора:

Chords:
Em (022000)
G (320033)
Am (577xxx)
C (x355xx)
G (3554xx)
F (133xxx)
 
 

Видео