Serj Tankian - Lie Lie Lie, аккорды

Прокрутка
Тональность
Шрифт
100
Piano Intro:
D-----------------------------------------I
A--8-8-8-8h6------------------------------I
F-------------8-7-------------------------I     X 2
C-----------------------------------------I   
G-----------------------------------------I
C-----------------------------------------I

D-----------------------------------------I
A-----------------------------------------I
F--7-7-7-5-3-2------3-3-3h5p3-2-----------I     
C-----------------------------------------I   
G-----------------------------------------I
C-----------------------------------------I

D-----------------------------------------I
A--8-8-8-8h6------------------------------I
F-------------8-7-------------------------I     X 2
C-----------------------------------------I   
G-----------------------------------------I
C-----------------------------------------I

D-----------------------------------------I
A-----------------------------------------I
F--7-7-7-7h8-7h8/10---10-10-10-10h12-8-7--I     
C-----------------------------------------I   
G-----------------------------------------I
C-----------------------------------------I

Main Riff:
D-------------------------------------I
A-------------------------------------I
F--------------------5-5-5-5--7-7-7-7-I     X4 
C--5-5-5-5--3-3-3-3--5-5-5-5--7-7-7-7-I   
G--5-5-5-5--3-3-3-3--3-3-3-3--5-5-5-5-I
C--5-5-5-5--3-3-3-3-------------------I

Verse:
D---------------------------------------------I
A---------------------------------------------I
F----------------------------5-5-5-5--7~------I     X2 
C----------------------------5-5-5-5--7~------I   
G----------------------------3-3-3-3--5~------I
C---------------------------------------------I

''...........................Let me go!'' 

Other Riff:
D----------------------------I
A----------------------------I
F----------------------------I     
C-8--8--8--888--7--7--7--7~~~I   
G-8--8--8--888--7--7--7--7~~~I
C-8--8--8--888--7--7--7--7~~~I
                  
''Take my hand and let's end it all''
D----------------------------------I
A----------------------------------I
F----------------------------------I     
C--10-10-10-10-10-10--3-3-3-3-3-3--I   
G--10-10-10-10-10-10--3-3-3-3-3-3--I
C--10-10-10-10-10-10--3-3-3-3-3-3--I

''She broke her little bones On the boulders below''
D----------------------------I
A----------------------------I
F----------------------------I     
C-8--8--8--888--7--7--7--7~~~I   
G-8--8--8--888--7--7--7--7~~~I
C-8--8--8--888--7--7--7--7~~~I
                  
Verse: x2
Other Riff
D----------------------------I
A----------------------------I
F----------------------------I     
C-8--8--8--888--7--7--7--7~~~I   
G-8--8--8--888--7--7--7--7~~~I
C-8--8--8--888--7--7--7--7~~~I
                  
''Take my hand and let's end it all''
D----------------------------------I
A----------------------------------I
F----------------------------------I     
C--10-10-10-10-10-10--3-3-3-3-3-3--I   
G--10-10-10-10-10-10--3-3-3-3-3-3--I
C--10-10-10-10-10-10--3-3-3-3-3-3--I

''She broke her little bones On the boulders below''
D----------------------------I
A----------------------------I
F----------------------------I     
C-8--8--8--888--7--7--7--7~~~I   
G-8--8--8--888--7--7--7--7~~~I
C-8--8--8--888--7--7--7--7~~~I
                  
D----------------------------------I
A----------------------------------I
F----------------------------------I     
C--10-10-10-10-10-10--3-3-3-3-3-3--I   
G--10-10-10-10-10-10--3-3-3-3-3-3--I
C--10-10-10-10-10-10--3-3-3-3-3-3--I

''She broke her little bones On the boulders below''
D-----I
A-----I
F-----I   
C-7~--I   
G-7~--I
C-7~--I

''And while she fell I delightfully said,'' 

Bridge Riff:
D---------------------------------------------I
A---------------------------------------------I
F----7----------------------7-----------8-8-7-I     
C--5---8-7-8-7-5-8-8-7b---5---8-7-8-7-5-------I   
G---------------------------------------------I
C---------------------------------------------I

''lalalalala lie lie lie''

Other Riff:
D----------------------------I
A----------------------------I
F----------------------------I     
C-8--8--8--888--7--7--7--7~~~I   
G-8--8--8--888--7--7--7--7~~~I
C-8--8--8--888--7--7--7--7~~~I
                  
''Take my hand and let's end it all''
D----------------------------------I
A----------------------------------I-
F----------------------------------I     
C--10-10-10-10-10-10--3-3-3-3-3-3--I   
G--10-10-10-10-10-10--3-3-3-3-3-3--I
C--10-10-10-10-10-10--3-3-3-3-3-3--I

''She broke her little bones On the boulders below''
D----------------------------I
A----------------------------I
F----------------------------I     
C-8--8--8--888--7--7--7--7~~~I   
G-8--8--8--888--7--7--7--7~~~I
C-8--8--8--888--7--7--7--7~~~I

D----------------------------------I
A----------------------------------I-
F----------------------------------I     
C--10-10-10-10-10-10--3-3-3-3-3-3--I   
G--10-10-10-10-10-10--3-3-3-3-3-3--I
C--10-10-10-10-10-10--3-3-3-3-3-3--I

''She broke her little bones On the boulders below''
D-----I
A-----I
F-----I   
C-7~--I   
G-7~--I
C-7~--I

''And while she fell I delightfully said,'' 

Outro Riff:
D---------------------------------------------I
A---------------------------------------------I
F----7----------------------7-----------8-8-7-I     
C--5---8-7-8-7-5-8-8-7b---5---8-7-8-7-5-------I   
G---------------------------------------------I
C---------------------------------------------I
''lalalalala lie lie lie''

Комментарий автора:

h = hammer on
p = pull of 
/ = Slide
~ = Let it ring
b = Bend
 
 

Видео