Serj Tankian - Unthinking Majority, аккорды

Прокрутка
Тональность
Шрифт
100
Tuning
C G C F A D (both guitars)

Intro
Guitar 1 (lightly strum with distortion)
   T T T T T    T T T T T
D |----------------|------------------|
A |----------------|------------------|
F |----------------|------------------|
C |-6-6--6-6--6----|-6-6--6-6--6------|
G |-4-4--4-4--4----|-4-4--4-4--4(4)---|
C |----------------|------------------|
         = lift your finger off slightly for a harmonic sound
   T T T T T    T T T S T T T S
 |----------------|------------------|
 |----------------|------------------|
 |----------------|------------------|
 |-6-6--6-6--6----|-6-6-6-6--4-4-4-4-|
 |-4-4--4-4--4----|-4-4-4-4--2-2-2-2-|
 |----------------|------------------|
   T T T T T    T T T T T
 |----------------|----------------|
 |----------------|----------------|
 |----------------|----------------|
 |-2-2--2-2--2----|-2-2--2-2--2----|
 |-0-0--0-0--0----|-0-0--0-0--0----|
 |----------------|----------------|
   T T T S S T T T
 |------------------|
 |------------------|
 |------------------|
 |------------------|
 |-4-4-4-4--6-6-6-6-|
 |-4-4-4-4--6-6-6-6-|

Riff 1
Guitar 1 and 2
   T T  T T  T   T T  T T  T
 |-------------------|------------------|
 |-------------------|------------------|
 |-------------------|------------------|
 |-11-11--11-11--11--|-11-11--11-11--11-|
 |-11-11--11-11--11--|-11-11--11-11--11-|
 |-11-11--11-11--11--|-11-11--11-11--11-|
   T T  T T  T   T T T S  S T T S
 |-------------------|-----------------------|
 |-------------------|-----------------------|
 |-------------------|-----------------------|
 |-11-11--11-11--11--|-11-11-11-11--9-9-9-9--|
 |-11-11--11-11--11--|-11-11-11-11--9-9-9-9--|
 |-11-11--11-11--11--|-11-11-11-11--9-9-9-9--|
   S T T T T    T T T T S
 |----------------|---------------|
 |----------------|---------------|
 |----------------|---------------|
 |-7-7--7-7--7----|-7-7--7-7--7---|
 |-7-7--7-7--7----|-7-7--7-7--7---|
 |-7-7--7-7--7----|-7-7--7-7--7---|
   T T T T T T T S S T T T T T T T
 |-------------------------------------|
 |-------------------------------------|
 |-------------------------------------|
 |-4-4-4-4--4-4-4-4--6-6-6-6--6-6-6-6--|
 |-4-4-4-4--4-4-4-4--6-6-6-6--6-6-6-6--|
 |-4-4-4-4--4-4-4-4--6-6-6-6--6-6-6-6--|

Riff 2
 Guitar 1 clean
   T T T T  T T T  T T T T  T T T  T T T T  T T T  T T T T T T T T
 |--------------------|--------------------|--------------------|--------------------|
 |--------------------|--------------------|--------------------|--------------------|
 |--------------------|--------------------|--------------------|--------------------|
 |----8--7--5---------|----------5---------|----------5---------|-7-8--5-7----5------|
 |-5------------8-7-8-|-5--7--8------8-7-8-|-5--7--8------8-7-8-|-----------8----7-8-|
 |--------------------|--------------------|--------------------|--------------------|

Riff 2
 Guitar 2 clean
   T T T T  T T T  T T T T  T T T  T T T T  T T T  T T T T T T T T
 |----6--5--3---------|----------3---------|----------3---------|-5-6--3-5----3------|
 |-3------------6-7-6-|-3--5--6------6-5-6-|-3--5--6------6-5-6-|-----------6----5-6-|
 |--------------------|--------------------|--------------------|--------------------|
 |--------------------|--------------------|--------------------|--------------------|
 |--------------------|--------------------|--------------------|--------------------|
 |--------------------|--------------------|--------------------|--------------------|

Riff 3
 Guitar 1 Distorted
PM -   - - - - - -  -   - - - T     -   - - - - - -  -   - - - T
 |--------------------|--------------------|--------------------|--------------------|
 |--------------------|--------------------|--------------------|--------------------|
 |--------------------|--------------------|--------------------|--------------------|
 |------5-4--0--------|------5-4--0--------|------5-4--0--------|------5-4--0--------|
 |-4-----------4--0---|-4------------------|-4-----------4--0---|-4------------------|
 |------------------6-|--------------------|------------------6-|--------------------|

PM -   - - - - - -  -   - - - T     -   - - - - - -  -   - - -  T
 |--------------------|--------------------|--------------------|--------------------|
 |--------------------|--------------------|--------------------|--------------------|
 |--------------------|--------------------|--------------------|--------------------|
 |------5-4--0--------|------5-4--0--------|------5-4--0--------|------5-4--0--------|
 |-4-----------4--0---|-4------------------|-4-----------4--0---|-4------------------|
 |------------------6-|--------------------|------------------6-|--------------------|
Riff 3
 Guitar 2 Distorted
   T T T T T T T T  T              T T T T T T T T  T
 |--------------------|--------------------|--------------------|--------------------|
 |--------------------|--------------------|--------------------|--------------------|
 |-6-6--6-6--6-6--6-6-|-6------------------|-6-6--6-6--6-6--6-6-|-6------------------|
 |-6-6--6-6--6-6--6-6-|-6------------------|-6-6--6-6--6-6--6-6-|-6------------------|
 |-4-4--4-4--4-4--4-4-|-4------------------|-4-4--4-4--4-4--4-4-|-4------------------|
 |--------------------|--------------------|--------------------|--------------------|
   I believe that your wrong.......

   T T T T T T T T  T T T T T       T T T T T T T T  T T T T T
 |--------------------|--------------------|--------------------|--------------------|
 |--------------------|--------------------|--------------------|--------------------|
 |-6-6--6-6--6-6--6-6-|-6-6--6-6--6--------|-6-6--6-6--6-6--6-6-|-6-6--6-6--6--------|
 |-6-6--6-6--6-6--6-6-|-6-6--6-6--6--------|-6-6--6-6--6-6--6-6-|-6-6--6-6--6--------|
 |-4-4--4-4--4-4--4-4-|-4-4--4-4--4--------|-4-4--4-4--4-4--4-4-|-4-4--4-4--4--------|
 |--------------------|--------------------|--------------------|--------------------|

Order
Intro
Riff 1
Riff 1
Riff 1
Piano
Riff 2 Guitar 1
Riff 2 Guitar 1 and Guitar 2
Riff 1
Riff 1
Riff 2 Guitar 1
Riff 2 Guitar 1 and Guitar 2
Riff 1
Riff 1
Riff 1
Riff 1
Riff 3 Guitar 1
Riff 3 Guitar 1 and Guitar 2
Riff 3 Guitar 1 and Guitar 2
Piano
Riff 2 Guitar 1 and Guitar 2
Riff 2 Guitar 1 and Guitar 2
Riff 2 Guitar 1 and Guitar 2
Riff 3 Guitar 1 and Guitar 2
Riff 1
Riff 1
Riff 1
Riff 1
Riff 3 Guitar 1 and Guitar 2

Lyrics:
We don't need your democracy.
Execute them kindly for me.
Take them by their filthy nostrils
Put them up in doggy hostels.

We don't need your hypocrisy
Execute real democracy.
Post-industrial society
The unthinking majority

Anti-depressants
Controlling tools of your system
Making life more tolerable (x2)

Anti-depressants
Controlling tools of your system
Making life more tolerable (x2)

We don't need your hypocrisy
Execute real democracy.
Post-industrial society
The unthinking majority

Anti-depressants
Controlling tools of your system
Making life more tolerable (x2)

Anti-depressants
Controlling tools of your system
Making life more tolerable (x2)

We don't need your hypocrisy
Execute real democracy.
Post-industrial society
The unthinking majority
Post-industrial society
The unthinking majority

We don't need your hypocrisy
Execute real democracy.
Post-industrial society
The unthinking majority
Post-industrial society
The unthinking majority

I believe that you're wrong
Insinuating that they hold the bomb
Clearing the way for the oil brigade (x2)

I believe that you're wrong
Insinuating that they hold the bomb
Clearing the way for the oil brigade (x2)

Ooooohahh...

Anti-depressants
Controlling tools of your system
Making life more tolerable (x2)

Anti-depressants
Controlling tools of your system
Making life more tolerable (x2)

Anti-depressants
Controlling tools of your system
Making life more tolerable (x2)

I believe that you're wrong
Insinuating that they hold the bomb
Clearing the way for the oil brigade (x2)

We don't need your hypocrisy
Execute real democracy.
Post-industrial society
The unthinking majority

We don't need your democracy.        We don't need your hypocrisy
Execute them kindly for me.         Execute real democracy.
Take them by their filthy nostrils     Post-industrial society
Put them up in doggy hostels.        The unthinking majority (x2)

I believe that you're wrong
Insinuating that they hold the bomb
Clearing the way for the oil brigade (x2)

Комментарий автора:

Tablature Legend
----------------
 S  - shift slide
 - natural harmonic
n(n) - tapped harmonic
 T  - tap
 PM - palm muting
 
 

Видео