Serj Tankian - Empty Walls, аккорды

Прокрутка
Тональность
Шрифт
100
Dop C (CGCFAD)

Intro:
guitar 1: x2
D --------------------------------------------------------------------------|
A --------------------------------------------------------------------------|
F --------------------------------------------------------------------------|
C --------------------------------------------------------------------------|
G -[5-5-7-8]x8--[10-10-12-13]x4--[8-8-10-12]x2--[7-7-8-10]x2----------------|
C --------------------------------------------------------------------------|

guitar 2: x2
D --------------------------------------------------------------------------|
A --------------------------------------------------------------------------|
F --------------------------------------------------------------------------|
C -[12]----------[10]----------[5]----------[3]--------[2]---------0~-------|
G -[12]x16-------[10]x16-------[5]x16-------[3]x8------[2]x8-------0~-------|
C -[12]----------[10]----------[5]----------[3]--------[2]---------0~-------|

Verse 1:
guitar 1: x3
D --------------------------------------------------------------------------|
A --------------------------------------------------------------------------|
F -@--@--@---------------------@--@--@--@--@--------------------------------|
C -5--5--5--@--@----@--@--@----5--5--8--6--5--@--@--@-----------------------|
G ----------8--6----5--6--8~------------------8--6--5^----------------------|
C --------------------------------------------------------------------------|
                    
on the 3rd time, instead of -8--6--5^- play:        
G -8--6--5~--5-6-5-

Chorus 1: part 1
guitar 1&2: x2
D ---------------------------------------------------------------------------|
A ---------------------------------------------------------------------------|
F -----------------------------[12]---------[10]-----------------------------|
C -[12]----------[10]----------[12]x8-------[10]x8---------------------------|
G -[12]x8--------[10]x8--------[10]---------[08]-----------------------------|
C -[12]----------[10]--------------------------------------------------------|

Chorus 1: part 2
guitar 1: x2
D --------------------------------------------------------------------------|
A --------------------------------------------------------------------------|
F --------------------------------------------------------------------------|
C -[12]----------[10]----------[5]----------[3]-----------------------------|
G -[12]x8--------[10]x8--------[5]x8--------[3]x8---------------------------|
C -[12]----------[10]----------[5]----------[3]-----------------------------|

guitar 2: x2
D --------------------------------------------------------------------------|
A --------------------------------------------------------------------------|
F --------------------------------------------------------------------------|
C -[12]----------[10]----------[5]----------[3]-----0~----------------------|
G -[12]x8--------[10]x8--------[5]x8--------[3]x8---0~----------------------|
C -[12]----------[10]----------[5]----------[3]-----0~----------------------|
____________________________________________________________________________

Verse 2:
guitar 1: x2
D --------------------------------------------------------------------------|
A --------------------------------------------------------------------------|
F -@--@--@---------------------@--@--@--@--@--------------------------------|
C -5--5--5--@--@----@--@--@----5--5--8--6--5--@--@--@-----------------------|
G ----------8--6----5--6--8~------------------8--6--5^----------------------|
C --------------------------------------------------------------------------|
                      
on the 2nd time, instead of -8--6--5^- play:
G -8--6--5~--5-6-5-

Chorus 2: part 1
guitar 1&2: x2
D ---------------------------------------------------------------------------|
A ---------------------------------------------------------------------------|
F -----------------------------[12]---------[10]-----------------------------|
C -[12]----------[10]----------[12]x8-------[10]x8---------------------------|
G -[12]x8--------[10]x8--------[10]---------[08]-----------------------------|
C -[12]----------[10]--------------------------------------------------------|

Chorus 2: part 2
guitar 1&2: x4
D --------------------------------------------------------------------------|
A --------------------------------------------------------------------------|
F --------------------------------------------------------------------------|
C -[12]----------[10]----------[5]----------[3]-----(0~)--------------------|
G -[12]x8--------[10]x8--------[5]x8--------[3]x8---(0~)--------------------|
C -[12]----------[10]----------[5]----------[3]-----(0~)--------------------|

ignore the held out open chords until the 4th time played.

wait a while, then
guitar 1:
D --------------------------------------------------------------------------|
A --------------------------------------------------------------------------|
F --------------------------------------------------------------------------|
C -12-----------------------------------------------------------------------|
G -12-----------------------------------------------------------------------|
C -12-[12]x16----[10]x16----[5]x16----[3]x8--[2]x8--------------------------|

this next part is violin, but if you wanted to do it on guitar

F----------------12~-----10~---------------------12~-----10~----------------|
C--12~-----10~-------------------12~-----10~--------------------------------|
____________________________________________________________________________

Chorus 3: part 1
guitar 1&2: x2
D ---------------------------------------------------------------------------|
A ---------------------------------------------------------------------------|
F -----------------------------[12]---------[10]-----------------------------|
C -[12]----------[10]----------[12]x8-------[10]x8---------------------------|
G -[12]x8--------[10]x8--------[10]---------[08]-----------------------------|
C -[12]----------[10]--------------------------------------------------------|

Chorus 3: part 2
guitar 1&2: x2
D --------------------------------------------------------------------------|
A --------------------------------------------------------------------------|
F --------------------------------------------------------------------------|
C -[12]----------[10]----------[5]----------[3]-----------------------------|
G -[12]x8--------[10]x8--------[5]x8--------[3]x8---------------------------|
C -[12]----------[10]----------[5]----------[3]-----------------------------|
____________________________________________________________________________

Outro:
guitar 1:
D --------------------------------------------------------------------------|
A --------------------------------------------------------------------------|
F --------------------------------------------------------------7~----------|
C --------------------------------------------------------------7~----------|
G -[5-5-7-8]x8--[10-10-12-13]x4--[8-8-10-12]x2--[7-7-8-10]x2----5~----------|
C --------------------------------------------------------------------------|

guitar 2:
D ----------------------------------------------------------------------10~-|
A -------------------------------------------------------------------10~----|
F --------------------------------------------------------------------------|
C -[12]----------[10]----------[5]----------[3]--------[2]---------0~-------|
G -[12]x16-------[10]x16-------[5]x16-------[3]x8------[2]x8-------0~-------|
C -[12]----------[10]----------[5]----------[3]--------[2]---------0~-------|

Комментарий автора:

^ bend
~ hold
h hammer on
 
 

Видео