Serj Tankian - Saving Us, аккорды

Прокрутка
Тональность
Шрифт
100
Intro:
E|--------------------------------------------------|
B|-----1-----1-----1-----1------0-----0-----0-----0-|
G|---2-----2-----2-----2------0-----0-----0-----0---|
D|--------------------------------------------------|
A|--------------------------------------------------|
E|-0-----0-----0-----0------0-----0-----0-----0-----| x2 

E|--------------------------------------------------|
B|--------------------------------------------------|
G|-----3-----3-----3-----3------0-----0-----0-----0-|
D|---4-----4-----4-----4------2-----2-----2-----2---|
A|--------------------------------------------------|
E|-0-----0-----0-----0------0-----0-----0-----0-----|

E|---------------------------------------0----------|
B|--------------------------------0------0----------|
G|-----2-----2-----2-----2------0---0----0----------|
D|---2-----2-----2-----2------2-------2--2----------|
A|---------------------------------------2----------|
E|-0-----0-----0-----0------0------------0----------|

   Am                        
Why do we sit around 
      Em                                         
And break each other's hearts tonight 
   Am                              
Why do we dance around 
    Em                                     
The issues 'till the morning light 

    F#                       
When we sit and talk 
       Em                                   
And tear each other's lives apart 
Am                        Em
You were the one to tell me go 

   Am                        
But you were the one for me 
      Em      
And now you're going through the door 
   Am                        
When you take that step 
      Em      
I love you baby more and more 

    F#               
We need to laugh and sing and cry 
       Em         
And warm each other's hearts tonight 
    Am                                   
Observing the fun of everything 
      Em                                   
And loving all our mother's God

Припев:
Em                                   
Tearing us, you're tearing us 
             G                                         
You're breaking us, you're breaking us 
          Am                               
You're carrying us, carrying us 
           C                   D           
You're saving us, you're saving us 

Em
You're tearing us, you're tearing us 
             G                                         
You're breaking us, breaking us 
          Am        
You're killing us, killing us 
         C      D
You're saving us 

   Am                        
Why do we sit around 
      Em      
And break each other's hearts tonight 
   Am                        
Why do we dance around 
      Em      
The issues 'till the morning light 

    F#               
When we sit and talk 
       Em         
And tear each other's lives apart 
Am                        Em
You were the one to tell me go 

   Am                        
But you were the one for me 
      Em      
And now you're going through the door 
   Am                        
When you take that step 
      Em      
I love you baby more and more 

    F#               
We need to laugh and sing and cry 
       Em         
And warm each other's hearts tonight 
    Am      
Observing the fun of everything 
      Em      
And loving all our mother's God

Припев:
Em                                   
Tearing us, you're tearing us 
             G                                         
You're breaking us, you're breaking us 
          Am                               
You're carrying us, carrying us 
           C                   D           
You're saving us, you're saving us 

Em
You're tearing us, you're tearing us 
             G                                         
You're breaking us, breaking us 
          Am        
You're killing us, killing us 
         C      D
You're saving us 

Проигрыш: D (b) B (b) Bb (b) C (b) C# (b) }x2 

D# (b)              
Forever alive, 
C (b)              
Forever alive, 
     B (b) C# (b) D (b)
Forever, forever

D# (b)              
Forever alive, 
C (b)          
Forever alive, 
   B (b)  C# (b)         D (b) 
Forever, never and ever again

Припев:
Em                                   
Tearing us, you're tearing us 
             G                                         
You're breaking us, you're breaking us 
          Am                               
You're carrying us, carrying us 
           C                   D           
You're saving us, you're saving us 

Em
You're tearing us, you're tearing us 
             G                                         
You're breaking us, breaking us 
          Am        
You're killing us, killing us 
         C      D
You're saving us 

Em                                   
Tearing us, you're tearing us 
             G                                         
You're breaking us, you're breaking us 
          Am                               
You're carrying us, carrying us 
           C                   D           
You're saving us, you're saving us 

Em
You're tearing us, you're tearing us 
             G                                         
You're breaking us, breaking us 
          Am        
You're killing us, killing us 
         C      D
You're saving us 

Em                                   
Tearing us, you're tearing us 
             G                                         
You're breaking us, you're breaking us 
          Am                               
You're carrying us, carrying us 
           C                   D           
You're saving us, you're saving us 

Em
You're tearing us, you're tearing us 
             G                                         
You're breaking us, breaking us 
          Am        
You're killing us, killing us 
         C      D
You're saving us 

Окончание=Вступление:
E|--------------------------------------------------|
B|-----1-----1-----1-----1------0-----0-----0-----0-|
G|---2-----2-----2-----2------0-----0-----0-----0---|
D|--------------------------------------------------|
A|--------------------------------------------------|
E|-0-----0-----0-----0------0-----0-----0-----0-----| x2 

E|--------------------------------------------------|
B|--------------------------------------------------|
G|-----3-----3-----3-----3------0-----0-----0-----0-|
D|---4-----4-----4-----4------2-----2-----2-----2---|
A|--------------------------------------------------|
E|-0-----0-----0-----0------0-----0-----0-----0-----|

E|---------------------------------------0----------|
B|--------------------------------0------0----------|
G|-----2-----2-----2-----2------0---0----0----------|
D|---2-----2-----2-----2------2-------2--2----------|
A|---------------------------------------2----------|
E|-0-----0-----0-----0------0------------0----------|
 
 
Свернуть Распечатать

Видео