Serj Tankian - Saving us, аккорды

Прокрутка
Тональность
Шрифт
100
Intro:
E---------------------------------------------------|
B-----1-----1-----1-----1---------------------------|
G---2-----2-----2-----2-------4-----4-----4-----4---|
D-2-----2-----2-----2-------6-----6-----6-----6-----| x2
A-------------------------5-----5-----5-----5-------|
E---------------------------------------------------|

E-------------------------------------------------|
B-------------------------------------------------|
G-----2-----2-----2-----2-------------------------|
D---4-----4-----4-----4--------2-----2-----2----2-|
A-4-----4-----4-----4--------2-----2-----2----2---|
E--------------------------1-----1-----1-----1----|

E----------------------------------------0-|
B----------------------------------------0-|
G-----2-----2-----2-----2-------0--------0-|
D---4-----4-----4-----4-------2---2------2-|
A-4-----4-----4-----4-------2-------2----2-|
E-------------------------1-----------0--0-|
 
 

Видео