Serj Tankian - Baby, аккорды

Прокрутка
Тональность
Шрифт
100
Serj Tankian - Baby (Intro)
Elect The Dead

Here are the intro and the verse of the song.

e|----------------------------------------------------|
B|----0-----------0----------0-----------0------------|
G|------0-----0-----0----------0-----0-----0----------|
D|----------2------------2---------2-----------2------|
A|--------2-----------2----------2-----------2--------|
E|--0-----------0----------0-----------0--------------|


e|----------------------------------------------------|
B|----5-----------5---------4-------------4-----4-----|
G|------5-----5-----5---------4-----4-----4---4-4-4---|
D|----------5-----------5---------4-----4-4---4-4-4---|
A|--3-----3-----3-----3---2-----2-----2---2---2---2---|
E|----------------------------------------------------|
 
 

Видео