Северный флот - Поднимая знамя, аккорды

Прокрутка
Тональность
Шрифт
100
Вступление:
4)-0-2-3-5-5-5-5-5-3--0-2-3-5-5-5-5/7-3--0-2-3-5-5-5-3-2-3--0-2-3-5-3--2-2-3-2-----
5)-0------------------0------------------0------------------0----------0------3-5--

Куплеты:
   Dm                                                          F         C
1)-1--1--1---1--1--1---1--1--1---1--1--1---1--1--1---1--1--1---1--1--1---0--0--0---
2)--2--2--2---2--2--2---2--2--2---2--2--2---2--2--2---2--2--2---1--1--1---1--1--1--
3)---3--3------3--3------3--3------3--3------3--3------3--3------2--2------0--0----

Куплет 1:
 Dm
Саднит в одном виске,
  Dm
В каком из них- не знаю.
  Dm
Время тает,
F	            Am	   Dm
Бьет секунды рыбой на песке

Dm
Я вижу, по руке
Dm
Так медленно сползает
Dm
Капля крови,
F	      Am   C		
Теплая и темная, моя

Припев:
  C	   
 Встаю один,
  Am                      
 Сердце рвется из груди,                   
   Dm
 Поднимая знамя,
   F                                 
 Не доживший до седин,
  C                     
 Под солнца зной,
   Am            
 Ненадолго живой

Вступление.

Куплет 2:
  Dm
Ненужные слова,
  Dm
Несказанные фразы,
  Dm
Сразу, разом,
F                 Am            
Потерялись где- то высоко.
  Dm
Я видел много снов,
  Dm
Слышал много сказок,
  Dm
Так прекрасно
F            Am
Небо надо мной,
          C
И мне легко.

Припев:
  C      
 Встаю один,
   Am                         
 Сердце рвется из груди,                     
  Dm
 Поднимая знамя,
  F                                 
 Не доживший до седин,
  C                     
 Под солнца зной,
  Am            Dm  
 Так ненадолго живой
  Dm
 Так сегодня надо,
  F 
 Никого со мной.
 
Проигрыш: D / Dsus4 }x3 
          F / Am
          D / Dsus4 }x3 
          Bb / Dm

Старое соло:
D / Dsus4 D / Dsus4 D / Dsus4 F Am D / Dsus4 D / Dsus4 D / Dsus4 Bb Dm 
1)------------------------------------------------------------------------------------3-5-7-8-8-8-8-8-7--3-5-7-8-7-8-8-10-7-8-7--3-5-7-8-8-8-7-5-3--5-6-5-3-3--5-6-5-3-3-
2)-3-5-7-8-8-8-8-8-7--3-5-7-8-7-8-8-10-7-8-7--3-5-7-8-8-8-7-5-3--5-6-5-3-3--5-6-5-3-3------------------------------------------------------------------------------------

Новое соло (x2):
C Am Dm F
2)-5/8-8-6-5-3-5--5-3-5-3-1--5/8-8-6-5-3-5--5-3-5-6-8--5/6-6-5-3-1-3--3-1-3-1---3/6-6-5-3-1-3--3-1-3-5--8--8-8-8-8-8-
3)----------------------------------------------------------------------------2--------------------------------------

Припев: 
 С
Встаю один,
  Am                         
Сердце рвется из груди,                     
  Dm
Поднимая знамя,
 F                                 
Не доживший до седин,
C                     
Под солнца зной, 
  Am            Dm  
Ненадолго живой
 Dm
Так сегодня надо,
 F                       
Я иду на вас войной.

   C       
Встаю один,
  Am                         
Сердце рвется из груди,                     
  Dm
Поднимая знамя,
 F                                 
Не доживший до седин,
C                     
Под солнца зной, 
  Am            Dm  
Ненадолго живой
 Dm
Так сегодня надо,
 F                       
Я иду на вас войной.

  C
Встаю один,
   Am                        
Сердце рвется из груди,                     
   Dm
Поднимая знамя,
 F                                 
Не доживший до седин,
C                     
Под солнца зной,
  Am            
Ненадолго живой

Кода = Вступление:
4)---2-3-5-5-5-5-5-3---2-3-5-5-5-5/7-3---2-3-5-5-5-3-2-3---2-3-5-3--2-2-3-2------
5)-5-----------------5-----------------5-----------------5------------------3-5--

Комментарий автора:

Перебор к припевам (1,2 и 3)
2)---------х---------
3)-----х-------х-----
4)---х---х---х---х---
5)-х-----------------

Бой используется только в последних двух припевах и Проигрыше.
Бой (v v v v ^ ^ v v (v^)).
 
 
Свернуть Распечатать

Аппликатуры аккордов

Аккорд DmАккорд FАккорд CАккорд AmАккорд DАккорд Dsus4Аккорд Bb
yegornik88yegornik88
автор подбора аккордов
63,324 90 25.09.2015

Видео