Северный флот - Вперёд и вверх, аккорды

Прокрутка
Тональность
Шрифт
100
Вступление: x2
4)-0-----2-----3-----5-----7-8---3--2--0-------------5-5--5-5-5--5-5-5--5-5-
5)---0-----0-----0-----5---------1--1--1---3--1--0---3-3--3-3-3--3-3-3--3-3-
6)-----0-----0-----0-----5-----------------3--3--3--------------------------

Куплет:
4)-0-0-0--2-2-2--3-3-3--5-5-5--7--8---3-3-3--2-2-2--0-0-0--------------------5-5--5-5-5--5-5-5--5-5-
5)-0-0-0--0-0-0--0-0-0--5-5-5--5--5---1-1-1--1-1-1--1-1-1---3-3-3--1-1--0-0--3-3--3-3-3--3-3-3--3-3-
6)-0-0-0--0-0-0--0-0-0--5-5-5--5--5-------------------------3-3-3--3-3--3-3-------------------------

Куплет:
D5        G5
Холодно и пусто
       A#5              F5         C5
Для таких, как он в толпе во все года.
  D5         G5
Странные и грустные
    A#5            F5         C5
В почёте здесь не будут никогда.

 G5               A#5               F5
Принято думать и делать, как заведено.
 G5                 A#5            C5
Мир этот - место в неинтересном кино.

Припев:
 F5
Боль моя,
   G#5 
Подними меня,
        C5            A#5
Дай мне силы быть высоко, словно птица.
 Fm
Мир пустой
    G#5
За моей спиной,
    C5             A#5
У меня теперь воли нет возвратиться.

Куплет:
D5        G5
Нет желания слушать,
       A#5              F5      C5
Нет желания больше видеть этот бред.
D5        G5
Страсти, но не души
       A#5              F5     C5
Населяют здесь тела сто тысяч лет.

 G5               A#5               F5
Сверху, к тому же отличный, наверное, вид.
 G5               A#5               C5
Солнце в зените, эй, люди, смотрите – летит!

Припев:
 F5
Боль моя,
   G#5 
Подними меня,
        C5            A#5
Дай мне силы быть высоко, словно птица.
 Fm
Мир пустой
    G#5
За моей спиной,
    C5             A#5
У меня теперь воли нет возвратиться.

Проигрыш:
4)-0-----2-----3-----5-----7-8---3--2--0-------------5-5--5-5-5--5-5-5--5-5-
5)---0-----0-----0-----5---------1--1--1---3--1--0---3-3--3-3-3--3-3-3--3-3-
6)-----0-----0-----0-----5-----------------3--3--3--------------------------

D5        G5
Высоко раскинув руки,
       A#5              F5   C5
Он парил над миром, будто стерх.
D5        G5
Время встало, стихли звуки,
       A#5              F5  C5
Он летел от нас вперёд и вверх,
    C5
И вверх,
    C5 
И вверх…

Припев:
 F5
Боль моя,
   G#5 
Подними меня,
        C5            A#5
Дай мне силы быть высоко, словно птица.
 Fm
Мир пустой
    G#5
За моей спиной,
    C5             A#5
У меня теперь воли нет возвратиться.

F5     G#5
Боль моя…
 C5         A#5
Подними меня…
F5     G#5
Боль моя…
 C5         A#5
Подними меня…

Кода: F5 | G#5 | C5 (3 раза ударить вниз)

Комментарий автора:

6 струна переведена на тон ниже(как и в большинстве песен СФ).
В Куплете можно играть как аккорды(но с учётом того,что 6-ая струна переведена) или по схеме выше.
Кода перебор:
3)-x--------x--------
4)-x----x-----x---x--
5)-x--x---x-----x----
6)-x-----------------

Квинты ставить такого плана-пример F5:
3)-5-
4)-3-
5)-3-
6)-3-
 
 
Свернуть Распечатать

Аппликатуры аккордов

Аккорд D5Аккорд G5Аккорд A#5Аккорд F5Аккорд C5Аккорд G#5Аккорд Fm
yegornik88yegornik88
автор подбора аккордов
9,131 3 27.08.2016

Видео