Шанхай - Солнечный зайчик, аккорды

Прокрутка
Тональность
Шрифт
100
Вступление
Em

   Em                          Am
Встретил тебя я, была ты самая милая,
B7                             Em
Самая милая, самая в мире счастливая.
E                                Am
Ты называла меня своим маленьким мальчиком,
B7             Am        B7        Em      
Ну, a себя непоседливым, солнечным зайчиком.
E                                Am
Ты называла меня своим маленьким мальчиком,
B7             Am        B7        Em      
Ну, a себя непоседливым, солнечным зайчиком.

C B7

   Em                                  Am
Встречи, свиданья подобные свадьбой кончаются,
B7                          Am
Мы умираем, a новые люди рождаются.
E                                      Am
Вот и y нас всё закончилось свадьбой веселою,
B7              Am       B7      Em   
Так и зажили мы жизнью семейною, новою.
E                                      Am
Вот и y нас всё закончилось свадьбой веселою,
B7              Am       B7      Em   
Так и зажили мы жизнью семейною, новою.

C B7

Em                                       Am
Как-то c работы, c работы пришёл раньше времени,
B7                                Am
Вижу y друга, y друга сидишь на коленях ты.
E                               Am
Ты называла его своим маленьким мальчиком,
B7             Am        B7        Em      
Ну, a себя непоседливым, солнечным зайчиком.
E                               Am
Ты называла его своим маленьким мальчиком,
B7             Am        B7        Em      
Ну, a себя непоседливым, солнечным зайчиком.

Модуляция на тон вверх
D Db7

   F#m                         Bm
Встретил тебя я, была ты самая милая,
Db7                            F#m 
Самая милая, самая в мире счастливая.
F#                              Bm
Ну, a сынишку, красивого нашего мальчика.
Db7             Bm    Db7       F#m
Как и тебя, называю я солнечным зайчиком.
F#                              Bm
Ну, a сынишку, красивого нашего мальчика.
Db7             Bm    Db7       F#m
Как и тебя, называю я солнечным зайчиком.

D Db7

Проигрыш
F#m Bm Db7 F#m F# Bm Db7 Bm Db7 F#m F# Bm Db7 Bm Db7 F#m

e|-------------------------|-------|-------------------------|-------|
B|-2-1-2-3-2---2-1-2-3-2---|-2-0---|-------------------------|-------|
G|-----------2-----------2-|-----1-|-4-3-4-6-4---4-3-4-7-6---|-------|
D|-------------------------|-------|-----------6-----------6-|-7-6-4-|
A|-------------------------|-------|-------------------------|-------|
E|-------------------------|-------|-------------------------|-------|

e|-2-1-2-3---2-1-2-3-2---|-------|-------------------------|-------|
B|---------2-----------2-|-3-2-0-|-------------------------|-------|
G|-----------------------|-------|-4-3-4-6-4---4-3-4-7-6---|-------|
D|-----------------------|-------|-----------6-----------6-|-7-6-4-|
A|-----------------------|-------|-------------------------|-------|
E|-----------------------|-------|-------------------------|-------|

e|-2-1-2-3---2-1-2-5-3---|-------|-------------------------|-------|
B|---------2-----------2-|-3-2-0-|-------------------------|-------|
G|-----------------------|-------|-4-3-4-6-4---4-3-4-7-6---|-------|
D|-----------------------|-------|-----------6-----------6-|-7-6-4-|
A|-----------------------|-------|-------------------------|-------|
E|-----------------------|-------|-------------------------|-------|

D Db7

Концовка x2
F#m D E 
 
 
Свернуть Распечатать

Видео