Shocking Blue - Never Marry A Railroad Man, аккорды

Прокрутка
Тональность
Шрифт
100
Intro:
   Dm    C       Dm    C     Dm      Bb        F
e|-------------------------------------------------------------------|
B|-6h8p6-5-------6h8p6-5h6p5-----------3-3-3-3-1---------------------|
G|-7-----5-------7-----5-----7---------3-3-3-3-2---0-2---------------|
D|---------------------------7---------------------2-3---------------|
A|-----------------------------------1-------------------------------|
E|-------------------------------------------------------------------|
 
F Em Dm

Verse:
Dm                                C
Have you ever been a broken heart once or twice
                         Dm
If it´s yes, how did you feel at his first lies
                          Bb      F F Em Dm
If it´s no, you need this good advice
 
Chorus:
Dm            C
Never marry a railroad man
                   Dm
He loves you every now and then
                    Bb   F
His heart is at his mule train 
F   Em  Dm
No! No! No!
Dm                        C
Don´t fall in love with a railroad man
                     Dm
If you do, forget of me if you can
                   Bb    F
You´re better of without him
 
Dsus2 A Dsus2 A
Aaah!
 
Solo: Dm Bb D#m B Em C G
      Dm C Dm Bb F Em Dm x2

Solo:
              Dm Bb         D#m B         Em C         G
e|---------------------------------------------------------------|
B|---------------------------------------------------------------|
G|---------------------------------------------------------------|
D|---------------------------------------------------------------|
A|----4-7-5-4-5-----5-8-6-5-6-----6-9-7-6-7-----7-8/10-10--------|
E|--5-------------6-------------7-------------8------------------|
 
   Dm            C                                Dm              Bb           F F Em Dm
e|------------------------------------3-5-3---------------------------------------|
B|--5/6-6-6-6-6--5h6p5p3h5------3-5-6-------6-5---6p5p3---3---3-3-6-6-6-3bend-----|
G|----------------------------5-------------------------5----------------------5--|
D|--------------------------------------------------------------------------------|
A|--------------------------------------------------------------------------------|
E|--------------------------------------------------------------------------------|
 
   Dm            C                                Dm                     Bb     F F Em Dm
e|--------------3--------------------3-5-3-----------------------------------------|
B|-5/6-6-6-6-6----6-5-3-5------3-5-6-------6-5---6p5p3---3---3-3-3-3-3--3-3-1------|
G|---------------------------5-------------------------5----------------3-3-2-0-2--|
D|----------------------------------------------------------------------------2-3--|
A|---------------------------------------------------------------------------------|
E|---------------------------------------------------------------------------------|

(in this part play chords without rhythm pattern)

         Dm  A5    C
Have you ever been restless in your bed
       C      Am        Dm
And so lonely that your eyes become wet
       Dm   F6       Bb  F  F Em Dm
Let me tell you that one thing
 
Dm A5 C C Am Dm Dm F6 Bb F
Mmm mmm....
F   Em  Dm
No! No! No!
 
Chorus:
Dm            C
Never marry a railroad man
 Dm
He loves you every now and then
 Bb   F
His heart is at his mule train
F   Em  Dm
No! No! No!
Dm                        C
Don`t fall in love with a railroad man
                     Dm
If you do, forget of me if you can
                 Bb      F
You´re better of without him
 
F   Em  Dm
No! No! No!
Dm C
No! No! No!
Dm
No! No! No!
 
 

Видео