Skillet - Savior, аккорды

Прокрутка
Тональность
Шрифт
100
D tuning: [DADGBD].

Intro:
Acoustic:
4/4 D     A      C     G F D   A    C       G F     E 
D||-x--------------------------------------------------||
B||-x--------------------------------------------------||
G||*x----------------2-0------------------2-0---------*||
D||*0-----2-3h-2---0---0-3-----2-3h-2---0---0-333-3-2-*||
A||-0---0--------3-------3---0--------3-------333-3-2--||
D||-0-0------------------3-0------------------333-3-2--||

Electric: Heavy Distortion   
4/4 D    D   D   D   D Bb
D||-------------------------||
B||-------------------------||
G||*-------------------333-*||
D||*00-x-0-x-0-x-0-x-0-333-*||
A||-00-x-0-x-0-x-0-x-0-111--||
D||-00-x-0-x-0-x-0-x-0------||
    pm ------pm-------

Acoustic:
4/4 D     A      C       G F D   A    C     G F     E 
D||-x--------------------------------------------------||
B||-x--------------------------------------------------||
G||*x----------------2-0------------------2-0---------*||
D||*0-----2-3h-2---0---0-3-----2-3h-2---0---0-333-3-2-*||
A||-0---0--------3-------3---0--------3-------333-3-2--||
D||-0-0------------------3-0------------------333-3-2--||

Electric: Chorus   
4/4 D    D   D   D  C   Bb
D||-------------------------||
B||-------------------------||
G||*----------------555-33-*||
D||*00-x-00-x-00-x--555-33-*||
A||-00-x-00-x-00-x--333-11--||
D||-00-x-00-x-00-x----------||

Electric: Heavy Distortion
4/4 D    D   D   D   D Bb
D||-------------------------||
B||-------------------------||
G||*-------------------333-*||
D||*00-x-0-x-0-x-0-x-0-333-*||
A||-00-x-0-x-0-x-0-x-0-111--||
D||-00-x-0-x-0-x-0-x-0------||
    pm ------pm-------

Acustic:
4/4 D     A      C       G F D   A    C     G F     E 
D||-x--------------------------------------------------||
B||-x--------------------------------------------------||
G||*x----------------2-0------------------2-0---------*||
D||*0-----2-3h-2---0---0-3-----2-3h-2---0---0-333-3-2-*||
A||-0---0--------3-------3---0--------3-------333-3-2--||
D||-0-0------------------3-0------------------333-3-2--||

Electric: Chorus
4/4 D    D   D   D  C   Bb
D||-------------------------||
B||-------------------------||
G||*----------------555-33-*||
D||*00-x-00-x-00-x--555-33-*||
A||-00-x-00-x-00-x--333-11--||
D||-00-x-00-x-00-x----------||

Electric:
D||-------------------||
B||-------------------||
G||*-----------------*||
D||*-----------------*||
A||-650-----6501030---||
D||-----230-----------||
   PM-----------------

    C    Bb   C    Bb   D     
D||-------------------------||
B||-------------------------||
G||*55x5-33x3-55x5-33x3-75h7||
D||*55x5-33x3-55x5-33x3-----||
A||-33x3-11x1-33x3-11x1-----||
D||-------------------------||

    D  E  F  G  
D||_xx-xx-xx-x--||
B||_xx-xx-xx-x--||
G||*xx-xx-xx-x-*||
D||*00/22/33/5-*||
A||-00/22/33/5--||
D||-00/22/33/5--||

Acustic:
4/4 D     A      C       G F D   A    C     G F     E 
D||-x--------------------------------------------------||
B||-x--------------------------------------------------||
G||*x----------------2-0------------------2-0---------*||
D||*0-----2-3h-2---0---0-3-----2-3h-2---0---0-333-3-2-*||
A||-0---0--------3-------3---0--------3-------333-3-2--||
D||-0-0------------------3-0------------------333-3-2--||

Electric: Chorus
4/4 D    D   D   D  C   Bb
D||-------------------------||
B||-------------------------||
G||*----------------555-33-*||
D||*00-x-00-x-00-x--555-33-*||
A||-00-x-00-x-00-x--333-11--||
D||-00-x-00-x-00-x----------||

Electric: Heavy Distortion
4/4 D    D   D   D   D Bb
D||-------------------------||
B||-------------------------||
G||*-------------------333-*||
D||*00-x-0-x-0-x-0-x-0-333-*||
A||-00-x-0-x-0-x-0-x-0-111--||
D||-00-x-0-x-0-x-0-x-0------||
    pm ------pm-------
 
 

Видео