Скриптонит - Это Любовь, аккорды новинка

Прокрутка
Тональность
Шрифт
100
играется перебором. 
Каподастр на 3 ладу.
Intro:
       Am            C                Am          C / F       
1|-------0-------------0-------------0---------------------|
2|-----1-----1-------1-----1-------1-----1-------1-----1---|
3|---2-----2-------0-----0-------2-----2-------0-----2-----|
4|---------------------------------------------------------|
5|-0-------------3-------------0-------------3-----3-------|
6|---------------------------------------------------------|
куплет:
       Am             C            Am             C / F       
1|-------0-------------0-------------0---------------------|
2|-----1-----1-------1-----1-------1-----1-------1-----1---|
3|---2-----2-------0-----0-------2-----2-------0-----2-----|
4|---------------------------------------------------------|
5|-0-------------3-------------0-------------3-----3-------|
6|---------------------------------------------------------|

       Am             C             F             C / G       
1|-------0-------------0-------------1---------------------|
2|-----1-----1-------1-----1-------1-----1-------1-----0---|
3|---2-----2-------0-----0-------2-----2-------0-----0-----|
4|---------------------------------------------------------|
5|-0-------------3-------------3-------------3-------------|
6|-------------------------------------------------3-------|
припев:
       Am             C            Am             C / F       
1|-------0-------------0-------------0---------------------|
2|-----1-----1-------1-----1-------1-----1-------1-----1---|
3|---2-----2-------0-----0-------2-----2-------0-----2-----|
4|---------------------------------------------------------|
5|-0-------------3-------------0-------------3-----3-------|
6|---------------------------------------------------------|

       Am             C                F / Am / C / G       
1|-------0-------------0-----------------------------------|
2|-----1-----1-------1-----1-------1-----1-----1-----0-----|
3|---2-----2-------0-----0-------2-----2-----0-----0-------|
4|---------------------------------------------------------|
5|-0-------------3-------------3-----0-----3---------------|
6|-----------------------------------------------3---------|

                   C                             Am 
Я опять на районе потерял себя в одном из дворов.
                          C / F                          Am
Ты опять мне трезвонишь, чтобы знать, что я жив и здоров.
                    C                             F
Среди тех пацанов, барыг и быков, машин, мусоров.
             C / G                         Am
Я пообещал бросить дуть и пить, ведь это любовь.

               C                             Am 
Руки в петли, руки прямо, как узлы, руки на замок.
                 C / F                      Am
Руки в пепле, губы об твои губы, глаза в потолок.
               C                                  F
Я снова в дверях, руки врозь, прости, что валюсь с ног.
               C / G                        Am
Я снова пообещал, все, что смог, ведь это любовь.

Припев:
              C                      Am 
Ещё одной темной ночью, каждый твой вдох.
               C / F             Am
И каждый твой выдох, кричит об одном.
                   C                 F
Еще одним холодным утром - руки без слов.
 Am         C      G     Am
Кричат об одном - это любовь.
   
                     C                              Am  
Ты опять в телефоне ищешь сообщения шл*х, пока сплю.
                      C / F                          Am
Ты опять их находишь будишь, орешь, все нервы к нулю.
                       C                              F
Среди кресел, столов и полок посуды в пол, я тебя ловлю.
                      C / G               Am
Ты снова прощаешь все, руки говорят - я люблю.

              C                        Am
Я опять с самолета в самолет, в поезда.
              C / F                   Am
Ты опять в переезде 5 часов, не устав.
                   C                                 F
Я с дороги в дом, ты туда же, всё в привычных цветах.
             C / G                  Am    
Ты опять оторвешь, не удержав - я люблю.

Припев:
              C                      Am 
Ещё одной темной ночью, каждый твой вдох.
               C / F             Am
И каждый твой выдох, кричит об одном.
                   C                 F
Еще одним холодным утром - руки без слов.
 Am         C      G     Am
Кричат об одном - это любовь.

Проигрыш(боем ↓ ↑↓↑): Dm F Am G Dm F Am G                      
 
                   C                             Am 
Я опять на районе потерял себя в одном из дворов.
                          C / F                          Am
Ты опять мне трезвонишь, чтобы знать, что я жив и здоров.
                    C                            F
Среди тех пацанов, барыг и быков, машин, мусоров.
             C / G                          Am
Я пообещал бросить дуть и пить, ведь это любовь.
 
 
Свернуть Распечатать

Видео