Скрябiн - Люди, як кораблі, аккорды новинка

Прокрутка
Тональность
Шрифт
100
(капо 3)

[Вступление]: Em Am D

Em         Am               D
Я не твій брат — ти не сестра моя
      Em
Ніколи не розказуй мені
  Am               D
Хто і в чому є винний на нашій землі
    Em
Люди, як кораблі

Кожен пливе поки хвиля несе
І поки глибока вода
Глибока і темна до самого дна
До самого-самого дна

Програш: Em Am D

На глибині зустрічаються всі
Так ніби в морі місця нема
І труться бортами, аж стогне земля
Від зависті, підлості й зла

Хтось не доплив, бо йому помогли
Набрати повні трюми води
Бо стати героями тої війни
Дуже хотіли вони

Приспів:
   А до берега тихо хвилі несуть
   Поранені душі живих кораблів
   А від берега знову в море ідуть
   Ті, хто вірив і правду знати хотів

Наш океан знає більше, ніж ми
Секрети всі у нього на дні
А ми ходим зверху, великі й малі
Люди, як кораблі

Гордо пливем і не вірить ніхто
Шо ним зацікавилось зло
І серед вітрів ми не чуєм щурів
Які прогризають нам дно

Приспів.

1|-------------------------------------|-----------------
2|-------------------------------------|-----------------
3|-----2-0-----------------------------|-----------------
4|-----------4-5-0---2-------0---------|--------5--4--0--
5|-2-3-----------------2-3-----0-------|------2----------
6|-------------------------------3--2--|--2-3------------

1|-------------------------------------|--------------------
2|-------------------------------------|--------------------
3|-----2-0-----------------------------|--------------------
4|-----------4-5-0---2-------0---------|-0---0--------------
5|-2-3-----------------2-3-----0-------|---3---2--3-0--2----
6|-------------------------------3--2--|-------------------- 
 
 
Свернуть Распечатать

Аппликатуры аккордов

Аккорд EmАккорд AmАккорд D
Gerrra2Gerrra2
автор подбора аккордов
552 3 05.08.2022

Видео