Запрещают песни Цоя, Агата Кристи, Наутилус Помпилиус, Зиверт
Отвечаем в отдельной теме

Слот - АнгелОК, аккорды

Прокрутка
Тональность
Шрифт
100
Вступление: G5 F5 B5 A5 E5 F#5 B5 A5 G5 F#5

B7 B6
Мой ангел О.К.
B7
Порхает крылья наружу
B6
Зачем-то я ему нужен
B7 B6
Следит в глазок
Gsus2
И в темноте светит светом
Gsus2
На всё приходит ответом
D
А этим летом улетел амиго и выпал снег
C#
Но мне казалось он сказал - я мигом, I`ll be back

Припев:
G5 F#5
Летит моя душа
B5 A5
На красный свет, на чёрный день
E5 F#5
Солнце - белый шар
B5 A5
Закрыло мне от крыльев тень
G5 F#5
Эй ну как ты мог
G5 F#5
Мой Ангел О.К.

B7 B6
Мой Ангел О.К.
B7
Стоит за правым плечом
B6
И как будто бы не причём он
B7 B6
Рот на замок,
Gsus2
А если кликну три раза
Gsus2
Он проявляется сразу
D
Но снова фаза когда манят звёзды и я молюсь -
C#
Мне не казалось и сказал мой крёстный - я вернусь

Припев:
G5 F#5
Летит моя душа
B5 A5
На красный свет, на чёрный день
E5 F#5
Солнце - белый шар
B5 A5
Закрыло мне от крыльев тень
G5 F#5
Эй ну как ты мог
G5 F#5
Мой Ангел О.К.

B7 B6
Серафим - шестикрылый гид,
B7
Ангел-предохранитель - мой сателлит
B6
Ангел-путеводитель, ангел - DJ,
B7 B6
Ангел - окей, ангел-огнетушитель... НО
Gsus2
Смотритель - недосмотрел
Gsus2
Любитель любил, взял улетел в астрал
D
Пропал сигнал где-то в звёздах
C#
Я звал, но было поздно и я тебя потерял

Припев:
G5 F#5
Летит моя душа
B5 A5
На красный свет, на чёрный день
E5 F#5
Солнце - белый шар
B5 A5
Закрыло мне от крыльев тень
G5 F#5
Эй ну как ты мог
G5 F#5
Мой Ангел О.К.

Соло: x4
E|-----------------------------
B|-----------------------------
G|-----------------------------
D|-----------------------------
A|-----------------------------
D|-9-12-9-11-12-9-9-12-9-11-12-

И после это же на 2 октавы выше еще 4 раза, то есть:
E|----------------------------------
B|-12-15-12-14-15-12-12-15-12-14-15-
G|----------------------------------
D|----------------------------------
A|----------------------------------
D|----------------------------------

Ход в последнем припеве (партия 2-й гитары):
E|---------------17--------
B|-14-17-14-15-14-17-14-15-
G|-------------------------
D|-------------------------
A|-------------------------
D|-------------------------

Комментарий автора:

   B7    B6    Gsus2
E|-----|-----|---
B|-----|-----|---
G|---2-|---1-|-2-
D|-4---|-4---|---
A|-2-2-|-2-2-|-0-
D|-----|-----|-5-
 
 

Видео