Запрещают песни Цоя, Агата Кристи, Наутилус Помпилиус, Зиверт
Отвечаем в отдельной теме

Слот - Две капли, аккорды

Прокрутка
Тональность
Шрифт
100
Вступление/Куплет:
E|---------------------------------------------|
B|---------------------------------------------|
G|---------------------------------------------|
D|---------------------------------------------|
A|------7-4--4--4-4-5-4--------7-4--4--4-4-5-4-|
E|-5--5------------------5--5------------------|

E|-----------------------------|
B|-----------------------------|
G|------6-4--4-4-4--2-2--4-4-4-|
D|-----------------------------|
A|-5--5------------------------|
E|-----------------------------|

Куплет 1:
E|---------------------------------------------|
B|---------------------------------------------|
G|---------------------------------------------|
D|---------------------------------------------|
A|------7-4--4--4-4-5-4--------7-4--4--4-4-5-4-|
E|-5--5------------------5--5------------------|

E|-----------------------------|
B|-----------------------------|
G|------6-4--4-4-4--2-2--4-4-4-|
D|-----------------------------|
A|-5--5------------------------|
E|-----------------------------|

Ледяная вода тридцать первого дня
Отделяет года и тебя от меня.
Несмешное кино об упавшей листве.
Выдыхаясь, вино расплескалось на две капли в море...
Окно застыло, а птицы недопели.
Я помню это было все на самом деле...
Мы в нем утонем...
Тепло от рук осталось на упругом теле.
И мне не показалось - все на самом деле...
Две капли в море...
Кино остановилось на интересном месте,
А память пригодилась, я помню - были вместе
Мы в нем утонем...
Я помню было лето. Мы одного хотели.
Но все осталось где-то. Все на самом деле...
Иду на маскарад...
Искать твой зимний взгляд...

	A5                            F#5
	Мы опять у этой призрачной черты
	                            A5
	И Новый Год несет надежду всем.
	                           F#5
	Он мне не нужен, если рядом ты
	                       E5  D5
	И не поможет, если тебя нет...
	                           F#5
	Только дай на секунду заглянуть в глаза,
	                           F#5
	И твой язык не повернется слово "нет" в ответ сказать. 

Куплет 2:
E|---------------------------------------------|
B|---------------------------------------------|
G|---------------------------------------------|
D|---------------------------------------------|
A|------7-4--4--4-4-5-4--------7-4--4--4-4-5-4-|
E|-5--5------------------5--5------------------|

E|-----------------------------|
B|-----------------------------|
G|------6-4--4-4-4--2-2--4-4-4-|
D|-----------------------------|
A|-5--5------------------------|
E|-----------------------------|

Телефон без звонка и война без потерь.
Мы живые пока. Приоткрытую дверь
Не захлопнет рука без царя в голове.
Извиваясь, река расплескалась на две капли в море...
Дед Мороз, конфетти - не пройти:
Столько лиц на пути...
Мы в нем утонем...
И все как в припадке - шатки.
Тебя не найти в этой лихорадке.
Две капли в море...
Одна только цель - твоей улыбки щель
Я так жду, я хочу улыбки щель...
Мы в нем утонем...
Мы отсюда уйдем. Бегом. Тайком.
И только вдвоем...

	A5                            F#5
	Мы опять у этой призрачной черты
	                            A5
	И Новый Год несет надежду всем.
	                           F#5
	Он мне не нужен, если рядом ты
	                       E5  D5
	И не поможет, если тебя нет...
	                           F#5
	Только дай на секунду заглянуть в глаза,
	                           F#5
	И твой язык не повернется слово "нет" в ответ сказать.

Комментарий автора:

Аккорды:
   A5  F#5  E5  D5
E|------------------|
B|------------------|
G|--------------7---|
D|-7----4---2---7---|
A|-7----4---2---5---|
E|-5----2-----------|
 
 
Свернуть Распечатать

Аппликатуры аккордов

Аккорд A5Аккорд F#5Аккорд E5Аккорд D5
помощники
11,112 5 31.03.2007

Видео