Запрещают песни Цоя, Агата Кристи, Наутилус Помпилиус, Зиверт
Отвечаем в отдельной теме

Слот - Две войны, аккорды

Прокрутка
Тональность
Шрифт
100
E||-----------------------------|--7--7-7--7-5--5-5--5-4-5-4---| 
B||--5--5-5--5-5--5-5--5-5--5-5-|----------------------------5-| 
G||-----------------------------|------------------------------| 
D||-----------------------------|------------------------------| 
A||-----------------------------|------------------------------| 
E||-----------------------------|------------------------------| 
     
-----------------------------|--5--5-5--5-4--4-4--4-0-2-0---|| 
--4--4-4--4-4--4-4--4-4--4-4-|----------------------------4-|| 
-----------------------------|------------------------------|| 
-----------------------------|------------------------------|| 
-----------------------------|------------------------------|| 
-----------------------------|------------------------------|| 
 
C#           B   G#       A 
Мелькают этажи, наверх на крышу, 
C#           B   G#       A                   
Наверное, ты жив, но я не слышу смех. 
C#                   B   
В тесном мире застряли, в такт молчали, 
 G#              A 
Нас доставали сорок пять 
C#                   B   
Минут ныло тело, так хотело, 
 G#              A 
Но не сумело тебе сказать... 
 
C#             B   
2 разных войны в голове, 
 G#           A 
2 разных весны, одна зима, 
C#             B   
2 тонких струны в рукаве, 
 G#           A 
Дотянем до дна - сойдём с ума. 
 
C#           B   G#       A 
становится теплей, а мы не видим 
C#           B   G#       A 
пропали на войне, других событий нет. 
 
C#           B   
Рвались троссы-канаты, мы гранаты, 
 G#       A 
Там на 10-ом только 5 
C#           B   
Секунд было дело, пролетело... 
 G#       A 
Знаю, теряю тебя опять. 

C#                B    
2 разных войны в голове, 
G#               A 
2 разных весны, одна зима, 
C#                B    
2 тонких струны в рукаве, 
G#               A 
Достанем до дна - сойдём с ума. 

C#                B     
2 разных войны в голове, 
G#               A 
2 разных весны, одна зима, 
C#                B    
2 тонких струны в рукаве, 
G#               A 
Достанем до дна - сойдём с ума-а-а! 
 
C#          B   
2 разных войны... 
G#      A 
Одна зима... 
C# B G# A 
2 войны...  
 
 

Видео