Smash Mouth - All Star, аккорды

Прокрутка
Тональность
Шрифт
100
Verses:
|-------------------------------------------------------|
|-------------------------------------------------------|
|---------6--------------------------------------4---4--|
|------------------6-6-----------------6----------------|
|--4-----------3-4--------------6----------1-2----------|
|----2----------------------------4---------------------|

Chorus:                                            End with: 
|------------------------------------------------|----------0-0-----|
|------------------------------------------------|----------0-0-----|
|-----------4-4-x-x-x-x---5-5-5-5---4-4-x-x-x-x--|----------1-1---4-|
|-4-4-4-4---4-4-x-x-x-x---4-4-4-4---4-4-x-x-x-x--|-4-4-4-4--2-2---4-|
|-4-4-4-4---2-2-x-x-x-x---3-3-3-3---2-2-x-x-x-x--|-4-4-4-4--2-2---2-|
|-2-2-2-2----------------------------------------|-2-2-2-2----------|

Interlude: (play this along with the verse)
|-9--------------------------------------------|
|---9/11--7/9--7-----9/11--12--9/12--9-7-------|
|-----------------------------------------8--6-|
|----------------------------------------------|
|----------------------------------------------|
|----------------------------------------------|

Towards the end there are pickings, here it is:
|------2----------2------------2----------2---|
|----2---2------2---2--------2---2------2---2-|
|---------------------------------------------|
|---------------------------------------------|
|-------------2-----------3-----------2-------|
|-2-------------------------------------------|
 
 

Видео