Smash Mouth - All Star, аккорды

Прокрутка
Тональность
Шрифт
100
Through verse play:
G)-------------------
D)-------------------
A)---3-4--6----1-2--4
E)2---------4--------

through chours and interlude, play:
G)-------------------
D)-------------------
A)-----2--2-3--2-2--2
E)2--2---------------