Smash Mouth - All Star, аккорды

Прокрутка
Тональность
Шрифт
100
Main Riff:
G----------------------
D----------------------
A-----2-4--6----1-2--4-
E--2---------4---------

Chorus:
G-------------------------------------
D-------------------------------------
A-----------2-2-2-2--3-3-3-3--2-2-2-2-
E--2-2-2-2----------------------------

Bridge:
G---------------
D---------------
A-----2--2-4--2-
E--2------------
 
 

Видео