Smash Mouth - Im A Believer, аккорды

Прокрутка
Тональность
Шрифт
100
smash mouth
i'm a believer
by nester
 i think this is right, it goes well w/the guitar chords

Verse
G-0-0---0---------0-0----------
D-----0---0-0-3-3-----0-0-----0-
A------------------------------- x2
E-------------------------3-3--

Pre-Chorus
G------------0-----
D--------0-2---2---
A-3----------------  x2
E------3-----------

G-------------
D-----------0- x1
A-3-----------
E------3------

Chorus
G---------  x9
D---------
A-----3-3-
E-3-3-----

Leadoff(played by guitar but u can play it)
G-------10----10-------10-------10--
D-10-12----10----10-12----10-12-----   
A-----------------------------------
E-----------------------------------