Smash Mouth - Walking On The Sun, аккорды

Прокрутка
Тональность
Шрифт
100
WALKIN' ON THE SUN
ARTIST:SMASH MOUTH
TABED BY: SHYLOCK4@JUNO.COM

INTRO	

G----9--10--11--10------------------
D---10--11--12--11--------------------  REPEAT4X
A------------------------------------
E------------------------------------

VERSE & CHORUS

G----------------------------
D----------4 6-------------------------------------
A------2/4----------6---4 4----------------------------
E---4------------4--------------------------------- 
REPEAT AS MANY TIMES AS NEEDED


THATS ALL YOU NEED TO KNOW!!
IT IS THAT EASY!

HAVE FUN