Смысловые Галлюцинации - Зачем топтать мою любовь, аккорды

Прокрутка
Тональность
Шрифт
100
Вступление:
E|--2---2h3p2-2----2---2h3p2-2-----2---2h3p2-2----2---2h3p2-2--|
B|0---0---------00---0---------0-0---0---------00---0---------0|
G|-------------------------------------------------------------|
D|-------------------------------------------------------------|
A|-------------------------------------------------------------|
E|-------------------------------------------------------------|
 
E|--2---2h3p2-2----2---2h3p2-2-----2---2h3p2-2----2---2h3p2-2--|
B|0---0---------00---0---------0-0---0---------00---0---------3|
G|-------------------------------------------------------------|
D|-------------------------------------------------------------|
A|-------------------------------------------------------------|
E|-------------------------------------------------------------|

E|--2---2h3p2-2----2---2h3p2-2-----2---2h3p2-2----2---2h3p2-2--|
B|3---3---------33---3---------5-5---5---------22---2---------0|
G|-------------------------------------------------------------|
D|-------------------------------------------------------------|
A|-------------------------------------------------------------|
E|-------------------------------------------------------------|

E|--2---2h3p2-2----2---2h3p2-2-----2---2h3p2-2----2---2h3p2-2--|
B|0---0---------00---0---------0-0---0---------00---0---------3|
G|-------------------------------------------------------------|
D|-------------------------------------------------------------|
A|-------------------------------------------------------------|
E|-------------------------------------------------------------|

E|--2---2h3p2-2----2---2h3p2-2-----2---2h3p2-2----2---2h3p2-2--|
B|3---3---------33---3---------5-5---5---------22---2---------0|
G|-------------------------------------------------------------|
D|-------------------------------------------------------------|
A|-------------------------------------------------------------|
E|-------------------------------------------------------------|

Куплет:
 (Bm)                 (Em)
    Странно. Когда ты сходишь с ума,
E|---2------2------2-------2-------2-------2-----2---2h3p2-2---|
B|-0---0--0---0--0---0---0---0---0---0---0---0-0---0---------3-|
G|-------------------------------------------------------------|
D|-------------------------------------------------------------|
A|-------------------------------------------------------------|
E|-------------------------------------------------------------|

  (D)                 (F#)
    У меня появляется чувство вины.
E|---2------2------2-------2-------2-------2-------2-------2---|
B|-3---3--3---3--3---3---3---3---5---5---5---5---2---2---2---2-|
G|-------------------------------------------------------------|
D|-------------------------------------------------------------|
A|-------------------------------------------------------------|
E|-------------------------------------------------------------|

  (Bm)                (Em)
    Я тебя понимаю, ведь мне иногда
E|---2------2------2------2------2------2------2---2h3p2---2---|
B|-0---0--0---0--0---0--0---0--0---0--0---0--0---0-----------3-|
G|-------------------------------------------------------------|
D|-------------------------------------------------------------|
A|-------------------------------------------------------------|
E|-------------------------------------------------------------|

  (D)                 (F#)
    Тоже снятся страшные сны.
E|---2-------2-------2-------2------2------2-------2-------2---|
B|-3---3---3---3---3---3---3---3--5---5--5---5---2---2---2---2-|
G|-------------------------------------------------------------|
D|-------------------------------------------------------------|
A|-------------------------------------------------------------|
E|-------------------------------------------------------------|

  (Bm)                      (Em)
       Снится, что мне не дожить до весны,
E|--2---2h3p2-2-----2---2h3p2-2----2---2h3p2-2----2---2h3p2-2--|
B|0---0---------0-0---0---------00---0---------00---0---------3|
G|-------------------------------------------------------------|
D|-------------------------------------------------------------|
A|-------------------------------------------------------------|
E|-------------------------------------------------------------|

  (D)                      (F#)
       Снится, что вовсе весна умерла.
E|---2---2h3p2--2------2---2h3p2--2-----2-----2-----2------2---|
B|-3---3----------3--3---3----------5-5---5-5---5-2---2--2---2-|
G|-------------------------------------------------------------|
D|-------------------------------------------------------------|
A|-------------------------------------------------------------|
E|-------------------------------------------------------------|

  (Bm)                      (Em)
       Страх во мне оставляет следы.
E|--2---2h3p2--2----2---2h3p2-2----2---2h3p2-2----2---2h3p2-2--|
B|0---0----------00---0---------00---0---------00---0---------3|
G|-------------------------------------------------------------|
D|-------------------------------------------------------------|
A|-------------------------------------------------------------|
E|-------------------------------------------------------------|

  (D)                      (F#)
    А я думал, что страх - это просто слова...
E|---2---2h3p2---2-----2---2h3p2---2-----2-----2-----2-----2---|
B|-3---3-----------3-3---3-----------5-5---5-5---5-2---2-2---2-|
G|-------------------------------------------------------------|
D|-------------------------------------------------------------|
A|-------------------------------------------------------------|
E|-------------------------------------------------------------|

Припев:
  (Bm)                (Em)   (A)     (D)     (F#)
       Зачем топтать мою любовь?   Ее и так почти не стало.
E|------0---------0---2-3-0-2-3-----------------0-------0-------
B|--3-----3---3-----3-----------8-7-4h5p4-3-2-------2-------2---
G|4---4-----4---4-----------------------------2---2---2---2---2-
D|--------------------------------------------------------------
A|--------------------------------------------------------------
E|--------------------------------------------------------------

-0-------------2---------2|
---2-----3---3-----2---2--|
-----2-2---2-----3---3----|
--------------------------|
--------------------------|
--------------------------|

  (Bm)                (Em)   (A)     (D)     (F#)
        Я разбиваю руки в кровь.  Я не сошел с ума, так надо.
E|------0---------0---2-3-0-2-3-----------------0-------0-------
B|--3-----3---3-----3-----------8-7-4h5p4-3-2-------2-------2---
G|4---4-----4---4-----------------------------2---2---2---2---2-
D|--------------------------------------------------------------
A|--------------------------------------------------------------
E|--------------------------------------------------------------

-0-------------2---------2|
---2-----3---3-----2---2--|
-----2-2---2-----3---3----|
--------------------------|
--------------------------|
--------------------------|

Куплет:
 (Bm)                 (Em)
    Нам, наверное, лучше вернуться домой
E|---2------2------2-------2-------2-------2-----2---2h3p2-2---|
B|-0---0--0---0--0---0---0---0---0---0---0---0-0---0---------3-|
G|-------------------------------------------------------------|
D|-------------------------------------------------------------|
A|-------------------------------------------------------------|
E|-------------------------------------------------------------|

  (D)                 (F#)
    И лучше не видеться несколько дней.
E|---2------2------2-------2-------2-------2-------2-------2---|
B|-3---3--3---3--3---3---3---3---5---5---5---5---2---2---2---2-|
G|-------------------------------------------------------------|
D|-------------------------------------------------------------|
A|-------------------------------------------------------------|
E|-------------------------------------------------------------|

  (Bm)                (Em)
    Уходил с одной, возвращаюсь с другой.
E|---2------2------2------2------2------2------2---2h3p2---2---|
B|-0---0--0---0--0---0--0---0--0---0--0---0--0---0-----------3-|
G|-------------------------------------------------------------|
D|-------------------------------------------------------------|
A|-------------------------------------------------------------|
E|-------------------------------------------------------------|

  (D)                 (F#)
    Мне нужно расстаться с тобою скорей.
E|---2-------2-------2-------2------2------2-------2-------2---|
B|-3---3---3---3---3---3---3---3--5---5--5---5---2---2---2---2-|
G|-------------------------------------------------------------|
D|-------------------------------------------------------------|
A|-------------------------------------------------------------|
E|-------------------------------------------------------------|

  (Bm)                      (Em)
       Мне нужно избавиться, чтобы стать ближе,
E|--2---2h3p2-2-----2---2h3p2-2----2---2h3p2-2----2---2h3p2-2--|
B|0---0---------0-0---0---------00---0---------00---0---------3|
G|-------------------------------------------------------------|
D|-------------------------------------------------------------|
A|-------------------------------------------------------------|
E|-------------------------------------------------------------|

  (D)                      (F#)
       Чтоб не взрывалась моя голова.
E|---2---2h3p2--2------2---2h3p2--2-----2-----2-----2------2---|
B|-3---3----------3--3---3----------5-5---5-5---5-2---2--2---2-|
G|-------------------------------------------------------------|
D|-------------------------------------------------------------|
A|-------------------------------------------------------------|
E|-------------------------------------------------------------|

  (Bm)                      (Em)
       Мне нужно понять, что я ненавижу.
E|--2---2h3p2--2----2---2h3p2-2----2---2h3p2-2----2---2h3p2-2--|
B|0---0----------00---0---------00---0---------00---0---------3|
G|-------------------------------------------------------------|
D|-------------------------------------------------------------|
A|-------------------------------------------------------------|
E|-------------------------------------------------------------|

  (D)                      (F#)
    А я думал, что ненависть - просто слова...
E|---2---2h3p2---2-----2---2h3p2---2-----2-----2-----2-----2---|
B|-3---3-----------3-3---3-----------5-5---5-5---5-2---2-2---2-|
G|-------------------------------------------------------------|
D|-------------------------------------------------------------|
A|-------------------------------------------------------------|
E|-------------------------------------------------------------|

Припев:
  (Bm)                (Em)   (A)     (D)     (F#)
       Зачем топтать мою любовь?   Ее и так почти не стало.
E|------0---------0---2-3-0-2-3-----------------0-------0-------
B|--3-----3---3-----3-----------8-7-4h5p4-3-2-------2-------2---
G|4---4-----4---4-----------------------------2---2---2---2---2-
D|--------------------------------------------------------------
A|--------------------------------------------------------------
E|--------------------------------------------------------------

-0-------------2---------2|
---2-----3---3-----2---2--|
-----2-2---2-----3---3----|
--------------------------|
--------------------------|
--------------------------|

  (Bm)                (Em)   (A)     (D)     (F#)
        Я разбиваю руки в кровь.  Я не сошел с ума, так надо.
E|------0---------0---2-3-0-2-3-----------------0-------0-------
B|--3-----3---3-----3-----------8-7-4h5p4-3-2-------2-------2---
G|4---4-----4---4-----------------------------2---2---2---2---2-
D|--------------------------------------------------------------
A|--------------------------------------------------------------
E|--------------------------------------------------------------

-0-------------2---------2|
---2-----3---3-----2---2--|
-----2-2---2-----3---3----|
--------------------------|
--------------------------|
--------------------------|

Соло:
E|----------------------------------------------0-2-----|
B|---3-----3---3---3-----3---3---3----3---3---2-----2---|
G|-4-----4---4---0-----0---0---2----2---2---3---------3-|
D|------------------------------------------------------|
A|------------------------------------------------------|
E|------------------------------------------------------|

Припев:
  (Bm)                (Em)   (A)     (D)     (F#)
       Зачем топтать мою любовь?   Ее и так почти не стало.
E|------0---------0---2-3-0-2-3-----------------0-------0-------
B|--3-----3---3-----3-----------8-7-4h5p4-3-2-------2-------2---
G|4---4-----4---4-----------------------------2---2---2---2---2-
D|--------------------------------------------------------------
A|--------------------------------------------------------------
E|--------------------------------------------------------------

-0-------------2---------2|
---2-----3---3-----2---2--|
-----2-2---2-----3---3----|
--------------------------|
--------------------------|
--------------------------|

  (Bm)                (Em)   (A)     (D)     (F#)
        Я разбиваю руки в кровь.  Я не сошел с ума, так надо.
E|------0---------0---2-3-0-2-3-----------------0-------0-------
B|--3-----3---3-----3-----------8-7-4h5p4-3-2-------2-------2---
G|4---4-----4---4-----------------------------2---2---2---2---2-
D|--------------------------------------------------------------
A|--------------------------------------------------------------
E|--------------------------------------------------------------

-0-------------2---------2|
---2-----3---3-----2---2--|
-----2-2---2-----3---3----|
--------------------------|
--------------------------|
--------------------------|
 
 

Видео