Snow Patrol - Grazed Knees, аккорды

Прокрутка
Тональность
Шрифт
100
8. Grazed Knees

Verse and bridge:

Heck of a stretch this if your a beginner or have got small hands,
you could always put a capo on fret 1 and instead of playing the A=0, play E=5.

e-----------------|-----------------|-----------------|-----------------|
b-----------------|-----------------|-----------------|-----------------|
g-----5-----5-----|-----5-----5-----|-----------------|-----------------|
D---3-----3-----3-|---3-----3-----3-|-----3-----3-----|-----3-----3-----|
A-0-----0-----0---|-1-----1-----1---|---3-----3-----3-|---3-----3-----3-|
E-----------------|-----------------|-1-----1-----1---|-1-----1-----1---|

Chorus:

e-----------------|-----------------|---------------------------------|
b-----------------|-----------------|---------------------------------|
g-----5-----5-----|-----3-----3-----|-----5-----5----/(3)-------------|
D---5-----5-----5-|---3-----3-----3-|---5-----5------/(3)-------------|
A-3-----3-----3---|-1-----1-----1---|-3-----3--------/(1)-------------|
E-----------------|-----------------|---------------------------------|