Snow Patrol - Spitting Games, аккорды

Прокрутка
Тональность
Шрифт
100
5. Spitting games

Intro (and Bridge)
e--------------------------------------|
b--------------------------------------|
g-7------------------------------------|
D-7------------------------------------|
A-5------------------------------------|
E--------------------------------------|

Bass intro and bridge:

g-------------------------------------|
D-------------------------------------|
A-5-----7-----9-----10----------------|
E-------------------------------------|

Verse
e-------------------------------------|
b-------------------------------------|
g-11----9------7------4---------------|
D-0-----0------0------0---------------|
A-x-----x------x------x---------------|
E-10----8------7------3---------------|

Or I prefer

e-------------------------------------|
b-------------------------------------|
g-------------------------------------|
D-12----10-----9------5---------------|
A-12----10-----9------5---------------|
E-10----8------7------3---------------|

Chorus

e---------------------------------------|
b---------------------------------------|
g-------------7-------------------------|
D-3-----5-----7-------------------------|
A-3-----5-----5-------------------------|
E-1-----3-------------------------------|