Snow Patrol - Ways And Means, аккорды

Прокрутка
Тональность
Шрифт
100
9. Ways & Means

Intro and Verse

e-------------------------------------
b-------------------------------------
g-------------------------------------
D-------------------------------------
A-3-----------4-----------------------
E-5-----------5-----------------------

Riff

e-------------------------------------
b-------------------------------------
g-------------------------------------
D-0-2-2-2-2------0-2-2-2/5------------
A-------------------------------------
E-------------------------------------

Chorus

e-------------------------------------
b-------------------------------------
g-4-6-7-9-----------------------------
D-4-6-7-9-----------------------------
A-2-4-5-7-----------------------------
E-------------------------------------

Definitely need bass in this one, check out the bass tab :)