Snow Patrol - Whatevers Left, аккорды

Прокрутка
Тональность
Шрифт
100
4. Whatever's Left

verse
e------|------|-
b------|------|-
g------|------|-
D-7----|-6----|-
A-7----|-6----|-
E-5----|-4----|-

bridge
e------|------|------|------|-
b------|------|------|------|-
g------|------|-5----|-7----|-
D-4----|-5----|-5----|-7----|-
A-4----|-5----|-3----|-5----|-
E-2----|-3----|------|------|-

chorus
e-------------|-------------|-
b-------------|-------------|-
g-5-----------|-7-----------|-
D-5-----------|-7-----------|-
A-3-----------|-5-----------|-
E-------------|-------------|-