Snow Patrol - Wow, аккорды

Прокрутка
Тональность
Шрифт
100
2. Wow

intro 
e------
b------
g-9----
D-x----
A-7----
E-0----

verse
e------|------|----------
b------|------|----------
g------|------|----------
D-6----|-7----|-2--------
A-6----|-7----|-2--------
E-4----|-5----|-0--------

chorus 
e------|------|----------
b------|------|----------
g-6----|-7----|--9-------
D-6----|-7----|--9------- finishing on the 2nd chord there
A-4----|-5----|--7-------
E------|------|-(0)------

If you have a second guitarist, play the opening E all the way through the verse.