Sonic Death - Ewe Odin Poslednij, аккорды

Прокрутка
Тональность
Шрифт
100
F#5          G#5  F#5
Я не люблю девчонок
F#5         G#5  F#5
Я не люблю тусовки
F#5            G#5  F#5
Мне снится расчлененка
F5          F#5 
Мне снятся забастовки

Lick 1

Lick 2             Lick 2
Ты больше не нужна мне
                Lick 2 
Кричу я: "Уходи"
F#5 * A#5 *     G#5 * B5(VII) *
Не  говорим о главном
F#5 * A#5 *     G#5 * B5(VII) *
Нет ничего в груди
F#5 C#5 F5 F#5
Ты, ты, уходи
F#5 C#5 F5 F#5
Ты, ты, уходи
F#5 C#5 F5 F#5
Ты, ты, уходи

F5 F#5
Lick 1

Lick 2            Lick 2
И вот один остался
                  Lick 2 
И вот мой пистолет
F#5 * A#5 *     G#5 * B5(VII) *
Он сам собой нажался
F#5 * A#5 *     G#5 * B5(VII) *
В один конец билет
F#5    C#5    F5 F#5
Жизнь, жизнь, уходи
F#5    C#5    F5 F#5
Жизнь, жизнь, уходи
F#5    C#5    F5 F#5
Жизнь, жизнь, уходи

F5 F#5
Lick 3

Lick 2            Lick 2
На небо он поднялся
                  Lick 2 
И ангел включит свет
F#5 * A#5 *      G#5 * B5(VII) *
Ты как здесь оказался?
F#5 * A#5 *      G#5 * B5(VII) *
Тебе здесь места нет
F#5  C#5  F5 F#5
Всё, всё, уходи
F#5  C#5  F5 F#5
Всё, всё, уходи
F#5  C#5  F5 F#5
Всё, всё, уходи

C#5(X) * G#5 * A#5 * F#5 * C#5(X) *  G#5 *      A#5 * F#5
Нам      не     нужен   ещё один последний Курт Кобейн
C#5(X) * G#5 * A#5 * F#5 * C#5(X) *  G#5 *      A#5 * F#5
Нам      не     нужен   ещё один последний Курт Кобейн
C#5(X) * G#5 * A#5 * F#5 *
Нам      не     нужен
C#5(X) * G#5 * A#5 * F#5 *
Нам      не     нужен
C#5(X) * G#5 * A#5 * F#5 *
Нам      не     нужен

F5 * F#5 * 

F#5 A#5 B5(VII)
        Oh wow
F#5 A#5 B5(VII)
        Oh wow
F#5 A#5 B5(VII) F#5
        Oh wow

Комментарий автора:

Lick 1:
E|-5-5-7-5-5-7-5-5-7-10---8---5-5-7-5-5-7-5-5-7----5-7-5-5-7-10---8---5-5-7-5-5-7-5-5-7----
B|-----------------------------------------------8---------------------------------------8-

Lick 2:
E|------------
B|--8---------
G|------7-----
D|------------
A|----------5- 
E|------------

Lick 3:

E|--------14----------16------14----------16
B|----13-----13---13-------13-----13---13---
G|-15----------15-------15----------15------
D|------------------------------------------
A|------------------------------------------
E|------------------------------------------

F#5*;A#5*;G#5*;B5(VII)*;C#5(X)*;G#5*-аппликатура как у обычных квинт-аккордов,но с заглушенной 5 струной
 
 
Свернуть Распечатать

Видео