СОП «Магистраль» - Юбилейная, аккорды

Прокрутка
Тональность
Шрифт
100
Вступление
    F                 F                 Dm                Dm
e -1---1-------1---|-1---1-------1---|-1---1-------1---|-1---1-------1---|
b -------1-----1---|-------1-----1---|-------3-----3---|-------3-----3---|
g -----------2---2-|-----------2---2-|-------2---2---2-|-------2---2---2-|
d -3---------------|-3---------------|-0---------------|-0---------------|
a -----------------|-----------------|-----------------|-----------------|
e -----------------|-----------------|-----------------|-----------------|
    A#                A#                C                 C
e -1---1-------1---|-1---1-------1---|-3---3-------3---|-3---3-------3---|
b -------3-----3---|-------3-----3---|-------5-----5---|-------5-----5---|
g -----------3---3-|-----------3---3-|-----------5---5-|-----------5---5-|
d -----------------|-----------------|-----------------|-----------------|
a -1---------------|-1---------------|-3---------------|-3---------------|
e -----------------|-----------------|-----------------|-----------------|

Куплет:
F
Когда наш отряд
Только создавали,
Dm
Что останется
На долгие года, не знали.
A#
И вот нам 10 лет,
A#                 C
И мы гордимся этой датой!

F
И все трудности
Из года в год минуем; 
Dm
Есть друг у друга мы,
Поэтому всегда рискуем;
A#
Ведь мы проводники -
A#             C 
Бесстрашные ребята!


Припев:
C       F
Время идет,
F              Dm
а мы все сильней и крепче дружим;
Dm         A#  
Ведь расстояния
C           F     С
Учат нас любить!

C        F   
И магистраль
F              Dm
По просторам страны спешит домой,
Dm         A#  
Ведь здесь всегда будет рядом
C           F
Мой отряд родной!


Куплет:
F
Нам все говорят:
"Это наверное сложно!
Dm
И как с работою такой 
дружить вообще возможно!"
A#
Ведь мы все в поездах 
A#              C    
Огромной магистрали!

F
А тут ответ простой
И думать нам не надо;
Dm
Друзья всегда близки,
Пусть не всегда и рядом,
A#
Зато с отрядом жизнь  
A#              C  
Мы навсегда связали!


Припев:
C       F
Время идет,
F              Dm
а мы все сильней и крепче дружим;
Dm         A#  
Ведь расстояния
C           F     С
Учат нас любить!

C        F   
И магистраль
F              Dm
По просторам страны спешит домой,
Dm         A#  
Ведь здесь всегда будет рядом
C           F
Мой отряд родной!

Проигрыш:
F | F Dm | Dm A# | A# C

Припев(нежно):
C       F
Время идет,
F              Dm
а мы все сильней и крепче дружим;
Dm         A#  
Ведь расстояния
C           F     С
Учат нас любить!
C        F   
И магистраль
F              Dm
По просторам страны спешит домой,
Dm         A#  
Ведь здесь всегда будет рядом
C           F
Мой отряд родной!

Кода:
C        F   
И магистраль...
 
 
Свернуть Распечатать