SoulFly - First Commandment, аккорды

Прокрутка
Тональность
Шрифт
100
FIRST COMMANDMENT

from: SOULFLY

Tunned to C#?

e|------------------|
B|-------0-(trem.)--|
G|-------4~---------|
D|------------------|
A|--2-2-------------|
E|--0-0-------------|

e|-----------|
B|-----------|
G|-----------|
D|-----------|
A|--5-6-8-9--|
E|--3-4-6-7--|

Tabbed by Vogi (vogi@geocities.com)