Soundgarden - Black Hole Sun, аккорды

Прокрутка
Тональность
Шрифт
100
Here is the intro for one of the greatest songs ever written! 
(By Sound Garden atleast).

Tuning: Standard-Drop D

e|----------------------------------------------------------------
B|-------------------------1----------1----------------0----------
G|--------5--------------0----------------------------------------
D|------5---5----------0------------3---3------------2------------
A|----5-------5------1------------3-------3--------2--------------
D|--5-----------5---------------3-----------3----2----------------

e|----------------------------------------------------------------
B|----------------------------------------------------------------
G|-----------1----------------2-----------------------------------
D|---------1---1------------0-------------------------------------
A|-------1-------1--------3---------------------------------------
D|--0--1-----------1----0-----------------------------------------