Soundgarden - Slaves And Bulldozers, аккорды

Прокрутка
Тональность
Шрифт
100
Slaves & Bulldozers
By: SOUNDGARDEN
From: Badmotorfinger

This song may be tuned down though you can still play it in normal EADG
tuning.

Intro:

G------------------------------
D-----------3----53----3-----
A-----5-5-----5-----5-------- 
E-------------------------------

Repeat until you hear the riff change

Verse:
G-------------------------------
D------------53----3----------
A-------55------5----5--3----
E--------------------------------

Pre-Chorus:
D--------5--7-7----5--7--7-6-5
          Now I know why you've been shaking...

Chorus:
G------------3-5--5--------------------------
D---------3-------------7-6-5-0-3-5--5----
A------5---------------------------------------
E-----------------------------------------------
          Bleed your heart out...