Spineshank - Cyanide 2600, аккорды

Прокрутка
Тональность
Шрифт
100
Artist - Spineshank
Song - Cyanide 2600
Album - The Height of Callousness

Tuning: (Low to High) - A# F A# D# G C

Intro
|----------------------|
|----------------------|
|-7----7-----7-----12--|
|----------------------|
|-5----5-----5-----10--|
|----------------------|

Verse
|----------|
|----------|
|--8-----2-|
|--6-----0-|
|--6-----0-|
|--6-----0-|

Interlude
|---------------|
|---------------|
|---------------|
|---------------|
|-2-1--1-1---1--|
|-2-1--1-1---1--|


tab taken from http://snap.to/spineshank