Spineshank - Detached, аккорды

Прокрутка
Тональность
Шрифт
100
Artist - Spineshank
Song - Detached 
Album - Strickly Diesel

Tuning: Tune down one and a half steps then drop D one.

Intro/Verse 
|----------------------------------| 
|----------------------------------| 
|----------------------------------| 
|----------------------------------| 
|------------------2-2-2-2-1-1-1-1-| 
|-1-1-1-1-1-1-1-1------------------| 

Chorus 
|----------------------------------| 
|----------------------------------| 
|----------------------------------| 
|------------------4-4-4-4-3-3-3-3-| 
|-1-1-1-1-1-1-1-1 -2-2-2-2-1-1-1-1-| 
|-1-1-1-1-1-1-1-1------------------| 

Mid [Fall..] 
|-----------------------| 
|-----------------------| 
|-----------------------| 
|-----------------------| 
|-1--1-2--2-2---1-1-2-1-| 
|-1--1-2--2-2---1-1-2-1-| 

End [Rain!..] 
|-----------------------| 
|-----------------------| 
|-----------------------| 
|-3--3-4--4-4---3-3-4-3-| 
|-1--1-2--2-2---1-1-2-1-| 
|-----------------------| 



tab taken from http://snap.to/spineshank