Spineshank - Seamless, аккорды

Прокрутка
Тональность
Шрифт
100
Artist - Spineshank
Song - Seamless
Album - The Height of Callousness

Tuning: (low to high) - A# F A# D# G C

Pre-intro [Controlled feedback and SFX]

Intro [Four times]
|---------------------------------|
|---------------------------------|
|---------------------------------|
|-2--2--2--2-2-2--0--0-0--4-4-4-4-|
|-2--2--2--2-2-2--0--0-0--4-4-4-4-|
|-2--2--2--2-2-2--0--0-0--4-4-4-4-|

Verse [Four times]
|---------------------------------|
|---------------------------------|
|---------------------------------|
|-2---------------0-------4-------|
|-2---------------0-------4-------|
|-2---------------0-------4-------|

Chorus [Four times]
|----------------------------------------------------|
|----------------------------------------------------|
|----------------------------------------------------|
|----------------------------------------------------|
|-5-5-5-5-5-5--0-0-0-0-0-0--2-2-2-2-2-2--4-4-4-4-4-4-|
|-5-5-5-5-5-5--0-0-0-0-0-0--2-2-2-2-2-2--4-4-4-4-4-4-|



tab taken from http://snap.to/spineshank