Spineshank - Synthetic, аккорды

Прокрутка
Тональность
Шрифт
100
Spineshank, synthetic.
Tabbed by Jeff Hailey, Headlight_2000@yahoo.com.
  
This song is pretty easy I just tabbed out the main parts, if you listen to the song you should get it in no time.


This Song is in Drop-D tunning


Intro/Chorus
E|----------------------------------
B|----------------------------------
G|-33333333-5-66666666-5------------
D|-33333333-5-66666666-5-44444444---
A|-11111111-3-44444444-3-44444444---
D|-----------------------44444444---


Verse- This is hard to hear but he is on some sort of pedal
 
 P.M.-----------------------|

E|---------------------------
B|---------------------------
G|---------------------------
D|---------------------------
A|---------------------------
D|---3333333/4-11111111------


Prechourus (synthetic part)

E|---------------------
B|---------------------
G|---------------------
D|--333-4-11-131-------
A|--333-4-11-131-------
D|--333-4-11-131-------


This riff is played just before the Chorus and at the interlude

Interlude

E|---------------------------
B|---------------------------
G|---5-5-/4/-11-11-11--------
D|---x-x-/x/-x--x--x---------
A|---3-3-/2/-9--9--9---------
D|---------------------------

And thats it! any comments or corrections E-mail Headlight_2000@yahoo.com 
:: Ultimate Guitar Archive :: 
http://www.ultimate-guitar.com