Сплин - Алкоголь, аккорды

Прокрутка
Тональность
Шрифт
100
Интро: 
E|----------------------------|------------------------| 
B|----------------------------|------------------------| 
G|--9-----9-----9---9/10---10-|--9----9---9--9---7---7-| 
D|7---7-7---7-7---7------7----|7----7---7------7---7---| 
A|----------------------------|------------------------| 
E|----------------------------|------------------------| 
 
E|----------------------------|-------------| 
B|----------------------------|-------------| 
G|--9-----9-----9---9/10---10-|--9----9---9-| 
D|7---7-7---7-7---7------7----|7----7---7---| 
A|----------------------------|-------------| 
E|----------------------------|-------------| 
 
Проигрыш: 
E|-------------------------|-----------------------| 
B|-------------------------|-----------------------| 
G|9---9-7-9---9-7-5--7-5---|7-5-7---7-5-7---7-5--2-| 
D|-------------------------|-----------------------| 
A|-------------------------|-----------------------| 
E|-------------------------|-----------------------| 
 
Между проигрышем и куплетом: 
E|--------|--------|--------| 
B|--------|--------|--------| 
G|7-7-2---|7-7-2---|7-7-5-2-| 
D|--------|--------|--------| 
A|--------|--------|--------| 
E|--------|--------|--------| 
 
Куплет: 
E|------------------------|------------------------| 
B|------------------------|------------------------| 
G|--9-----9-----9-----9---|--9-----9-----9-----9---| 
D|7---7-7---7-7---7-7---7-|7---7-7---7-7---7-7---7-| 
A|------------------------|------------------------| 
E|------------------------|------------------------| 
 
E|----------------------------|--------------------------| 
B|----------------------------|--------------------------| 
G|--10-----10-----10---7---7--|--9-----9-----10-----10---| 
D|7----7-7----7-7----7---7----|7---7-7---7-7----7-7----7-| 
A|----------------------------|--------------------------| 
E|----------------------------|--------------------------| 
 
E|--------------------------|--------------------------| 
B|--------------------------|--------------------------| 
G|--9-----9-----10-----10---|--9-----9-----10-----10---| 
D|7---7-7---7-7----7-7----7-|7---7-7---7-7----7-7----7-| 
A|--------------------------|--------------------------| 
E|--------------------------|--------------------------| 
 
E|------------------------------| 
B|------------------------------| 
G|--9---10---10---9---10---10---| 
D|7---7----7----7---7----7----7-| 
A|------------------------------| 
E|------------------------------| 
 
Соло: 
E|-------------------------------------| 
B|-------------------------------------| 
G|9--5---10-9--5---7-9-12------10-9--5-| 
D|-------------------------------------| 
A|-------------------------------------| 
E|-------------------------------------| 
 
Мой друг алкоголь точно знает, чем дышет Есенин 
Мой друг алкоголь искупал Брайна Джонса в бассейне 
Алкоголь отпустил меня 
Алкоголь не простил меня 
Он вернется опять горло мне обжигать 
Алкоголь, твою мать 
 
Он пустил корни в теле моем, превратился в растение 
В среду мы сели за стол, а теперь воскресенье 
Алкоголь отпустил меня 
Алкоголь не простил меня 
Он вернется опять горло мне обжигать 
Алкоголь, твою мать 
 
Кто-то смеется в углу, или мне только кажется 
То, что вчера завязал, завтра снова развяжется 
Алкоголь отпустил меня 
Алкоголь не простил меня 
Он вернется опять горло мне обжигать 
Алкоголь, алкоголь, алкоголь, алкоголь 
Алкоголь твою мать
 
 

Видео