Сплин - Бог устал нас любить, аккорды

Прокрутка
Тональность
Шрифт
100
Когда Васильев играет ее вживую, периодически после аккорда G6 перед Am следует такой 
проигрыш:

вместо 

E---------------------------------------------------------------
B-------1---------------1------------0--------0---------0-------
G-----2-----2---------2---2--------0---0---------0----------0---
D---2---------2-----0-------0----0-------0----------0---------0-
A-0-------------------------------------------------------------
E----------------2-------------3--------------------------------

он играет

E---------------------------------------------------------------
B-------1---------------1------------0--------0---------3--1--0-
G-----2-----2---------2---2--------0---0---------0--------------
D---2---------2-----0-------0----0-------0----------0-----------
A-0-------------------------------------------------------------
E----------------2-------------3--------------------------------


Am  D7/F#  G6
--------------
-1----1----0--
-2----2----0--
-2----0----0--
-0------------
------2----3--
Intro: Am D7/F# G6
  Am    D7/F#            G6 
Мы чересчур увеличили дозу 
Вспомнили все что хотели забыть 
Или на рельсы легли слишком поздно 
  G6              Am
Бог устал нас любить 
  D7/F#           G6
Бог устал нас любить 
                     Am
Бог просто устал нас любить 
  D7/F#        G6
Бог просто устал 

Вот она, гильза от пули навылет 
Карта которую нечем покрыть 
Мы остаемся одни в этом мире 
Бог устал нас любить 
Бог устал нас любить 
Бог просто устал нас любить 
Бог просто устал 

Я рассказал бы тебе все что знаю 
Только об этом нельзя говорить 
Выпавший снег никогда не растает 
Бог устал нас любить 
Бог устал нас любить 
Бог просто устал нас любить 
Бог просто устал 

 
 
Свернуть Распечатать

Видео